Deftones - Knife Prty Chords & Tabs

 

Knife Prty Chords & Tabs

Deftones Chords & Tabs

Version: 1 Type: Bass Tab 0 ratings
1 star 2 stars 3 stars 4 stars 5 stars
comments

Knife Prty Bass Tab

Artist: Deftones
Song: knife prty
Album: White Pony
Tab By: Hans Stuer
Email: Hans.stuer@pi.be

Note: I'm pretty sure that some of this needs a little variation, but
since this is my first tab i'm pretty satisfied. Anyway i haven't found another
tab for this song so, it' probably the best out there ;)
Let me know if you have any improvements, comments, etc.
Enjoy!


No Bass X2

G||----------------------------------------||
D||----------------------------------------||
A||----------------------------------------||
E||--3---------3----------333333-44-33333--||
B||-----4--4\1----4--4\1-------------------|| X2    

No Bass X2

G||----------------------------------------||
D||----------------------------------------||
A||----------------------------------------||
E||--3---------3----------333333-44-33333--||
B||-----4--4\1----4--4\1-------------------|| X4

G||-------------------------------||
D||-------------------------------||
A||----------------66-55555555555-||
E||--4444444444444----------------||
B||-------------------------------|| X2
[ Tab from: http://www.guitartabs.cc/tabs/d/deftones/knife_prty_btab.html ]
G||-------------------||
D||-------------------||
A||----------------3--||
E||--4444444444444----||
B||-------------------||

G||----------------------------------------||
D||----------------------------------------||
A||----------------------------------------||
E||--3---------3----------333333-44-33333--||
B||-----4--4\1----4--4\1-------------------|| X4

G||-------------------------------||
D||-------------------------------||
A||----------------66-55555555555-||
E||--4444444444444----------------||
B||-------------------------------|| X2

G||-------------------||
D||-------------------||
A||----------------3--||
E||--4444444444444----||
B||-------------------||

When bass enters

G||-------------------------------------------------||
D||-------------------------------------------------||
A||-----3-----3-----3-----3-----3-----3-----3----3--||
E||--3-----3-----3-----3-----3-----3-----3-----3----||
B||-------------------------------------------------||

G||-------------------------------||
D||-------------------------------||
A||----------------66-55555555555-||
E||--4444444444444----------------||
B||-------------------------------|| X2

G||-------------------||
D||-------------------||
A||----------------3--||
E||--4444444444444----||
B||-------------------||
Comments