Deftones - Hexagram Chords & Tabs

 

Hexagram Chords & Tabs

Deftones Chords & Tabs

Version: 8 Type: Tab 0 ratings
1 star 2 stars 3 stars 4 stars 5 stars
comments

Hexagram Tab

   
Deftones	Hexagram
Ab-Db-Gb-Cb-Fb-Ab-Db

Intro / Couplet
|---------0---0--------------0--0-0---0-0--0--0--0--0-0---0-0--0--0-|
|-0---0---0---0--------------0--0-0---0-0--0--0--0--0-0---0-0--0--0-|
|-------------------------------------------------------------------|
|-2---2---2---2--------------6--6-6---6-6--6--6--6--6-6---6-6--6--6-|
|-2---2---2---2----4--4-4--4-6--6-6---6-6--6--6--6--6-6---6-6--6--6-|
|-0---0---0---0----4--4-4--4-4--4-4---4-4--4--4--4--4-4---4-4--4--4-|
|------------------2--2-2--2----------------------------------------|

|-0--0-0--0-0--0--0----------------------------------0~---------0~---------0~-----|
|-0--0-0--0-0--0--0-------------0---0---0-0~---0---0-0~---0---0-0~---0---0-0~---0-| le dernier
|---------------------------------------------------------------------------------| 
n'est pas
|-2--2-2--2-2--2--2-------------6---6---6-7~---7---7-7~---7---7-7~---7---7-7~---7-| joué 
l'intro
|-2--2-2--2-2--2--2--4--4-4--4--6---6---6-7~---7---7-7~---7---7-7~---7---7-7~---7-|
|-0--0-0--0-0--0--0--4--4-4--4--4---4---4-5~---5---5-5~---5---5-5~---5---5-5~---5-|
|--------------------2--2-2--2----------------------------------------------------|


Deuxième partie : dernière fois avant le refrain
|-0--0-0--0-0--0--0----------------------------------0~---------0~---------0~---------0~-----|
|-0--0-0--0-0--0--0-------------0---0---0-0~---0---0-0~---0---0-0~---0---0-0~---0---0-0~---0-|
|--------------------------------------------------------------------------------------------|
|-2--2-2--2-2--2--2-------------6---6---6-7~---7---7-7~---7---7-7~---7---7-7~---7---7-7~---7-|
|-2--2-2--2-2--2--2--4--4-4--4--6---6---6-7~---7---7-7~---7---7-7~---7---7-7~---7---7-7~---7-|
|-0--0-0--0-0--0--0--4--4-4--4--4---4---4-5~---5---5-5~---5---5-5~---5---5-5~---5---5-5~---5-|

                        \____________________________/
								  2x

[ Tab from: http://www.guitartabs.cc/tabs/d/deftones/hexagram_tab_ver_8.html ]
Refrain
|-------------------------------------------------------------------------------------------------------|
|-------------------------------------------------------------------------------------------------------|
|-------------------------------------------------------------------------------------------------------|
|------------------------------------------------7~-----------------------------------------------------|
|-5\4-4----5\4---4---4---4---4---10~---5~---4~---7~---10~---5~---4~---7~--5\4-4----5\4---4---4~--4---4~-|
|-5\4-4----5\4---4---4---4---4---10~---5~---4~---5~---10~---5~---4~---7~--5\4-4----5\4---4---4~--4---4~-|
|-3\2-2----3\2p0-2p0-2---2p0-2----8~---3~---2~---------8~---3~---2~---5~--3\2-2----3\2p0-2p0-2~--2p0-2~-|
  \__________________________/   \________________/   \________________/  \___________________________/
             riff 1			  fill 1		 fill 2			     riff 2

Premier refrain : riff 1 4x / fill 1 / riff 1 2x / riff 2 2x
Deuxième refrain : fill 2 / riff 1 2x / riff 2 2x / fill 2 / riff 1 / fill 1
                   riff 1 / fill 1 / riff 1 2x / riff 2 2x

|------------|
|---------0~-|
|------------| les refrains sont
|-2---2---6~-| terminés par ce riff
|-2---2---6~-|
|-0---0---4~-|
|------------|


Pont
|-----------0-0-0-----------------------------------------------------|
|-0---0---0-0-0-0--------------0----0---0-0--0--0--0----0---0-0--0--0-|
|---------------------------------------------------------------------|
|-2---2---2-2-2-2--------------6----6---6-6--6--6--6----6---6-6--6--6-|
|-2---2---2-2-2-2----4----4--4-6----6---6-6--6--6--6----6---6-6--6--6-|
|-0---0---0-0-0-0----4----4--4-4----4---4-4--4--4--4----4---4-4--4--4-|
|--------------------2----2--2----------------------------------------|

|-----------0-0-0-----------------------------------0~---------0~---------0~-|
|-0---0---0-0-0-0--------------0---0---0-0~---0---0-0~---0---0-0~---0---0-0~-|
|----------------------------------------------------------------------------|
|-2---2---2-2-2-2--------------6---6---6-7~---7---7-7~---7---7-7~---7---7-7~-|
|-2---2---2-2-2-2----0----0--0-6---6---6-7~---7---7-7~---7---7-7~---7---7-7~-|
|-0---0---0-0-0-0----0----0--0-4---4---4-5~---5---5-5~---5---5-5~---5---5-5~-|
|--------------------2----2--2-----------------------------------------------|

Outro : deuxième partie
|-0--0-0--0-0--0--0----------------------------------0~---------0~---------0~-----------------|
|-0--0-0--0-0--0--0-------------0---0---0-0~---0---0-0~---0---0-0~---0---0-0~---0--0~--0~--0~-|
|---------------------------------------------------------------------------------------------|
|-2--2-2--2-2--2--2-------------6---6---6-7~---7---7-7~---7---7-7~---7---7-7~---7--2~--2~--6~-|
|-2--2-2--2-2--2--2--4--4-4--4--6---6---6-7~---7---7-7~---7---7-7~---7---7-7~---7--2~--2~--6~-|
|-0--0-0--0-0--0--0--4--4-4--4--4---4---4-5~---5---5-5~---5---5-5~---5---5-5~---5--0~--0~--4~-|

                        \____________________________/
								  5x
Comments