Deftones - Hexagram Chords & Tabs

 

Hexagram Chords & Tabs

Deftones Chords & Tabs

Version: 4 Type: Tab 0 ratings
1 star 2 stars 3 stars 4 stars 5 stars
comments

Hexagram Tab

   
Deftones - "HEXAGRAM"
Album : Deftones

Por :  cenif
mail: cenif@hotmail.com


Intro

Bb|---------------------------3-3-3-3-3-3-3-3-3-3-3-3-3-3-3-3----------------|
F#|-7-7-7-7-7-7-7-7--4-4-4-4--2-2-2-2-2-2-2-2-2-2-2-2-2-2-2-2----------------|
C#|-7-7-7-7-7-7-7-7--4-4-4-4--4-4-4-4-4-4-4-4-4-4-4-4-4-4-4-4----------------|
G#|-5-5-5-5-5-5-5-5--2-2-2-2--4-4-4-4-4-4-4-4-4-4-4-4-4-4-4-4----------------|
Eb|-5-5-5-5-5-5-5-5--2-2-2-2--2-2-2-2-2-2-2-2-2-2-2-2-2-2-2-2----------------|
G#|-5-5-5-5-5-5-5-5--2-2-2-2-------------------------------------------------|

Bb|---------------------------3-3-3-3----------------------------------------|
F#|-7-7-7-7-7-7-7-7--4-4-4-4--2-2-2-2----------------------------------------|
C#|-7-7-7-7-7-7-7-7--4-4-4-4--4-4-4-4-5-5-5-5-5-5-5-5-5-5-5-5----------------|
G#|-5-5-5-5-5-5-5-5--2-2-2-2--4-4-4-4-5-5-5-5-5-5-5-5-5-5-5-5----------------|
Eb|-5-5-5-5-5-5-5-5--2-2-2-2--2-2-2-2-3-3-3-3-3-3-3-3-3-3-3-3----------------|
G#|-5-5-5-5-5-5-5-5--2-2-2-2-------------------------------------------------|
[ Tab from: http://www.guitartabs.cc/tabs/d/deftones/hexagram_tab_ver_4.html ]
Verse 
Guitar 1
*
Bb|---------------------------3-3-3-3-3-3-3-3-3-3-3-3-3-3-3-3----------------|
F#|-7-7-7-7-7-7-7-7--4-4-4-4--2-2-2-2-2-2-2-2-2-2-2-2-2-2-2-2----------------|
C#|-7-7-7-7-7-7-7-7--4-4-4-4--4-4-4-4-4-4-4-4-4-4-4-4-4-4-4-4----------------|
G#|-5-5-5-5-5-5-5-5--2-2-2-2--4-4-4-4-4-4-4-4-4-4-4-4-4-4-4-4----------------|
Eb|-5-5-5-5-5-5-5-5--2-2-2-2--2-2-2-2-2-2-2-2-2-2-2-2-2-2-2-2----------------|
G#|-5-5-5-5-5-5-5-5--2-2-2-2-------------------------------------------------|
**
Bb|---------------------------3-3-3-3----------------------------------------|
F#|-7-7-7-7-7-7-7-7--4-4-4-4--2-2-2-2----------------------------------------|
C#|-7-7-7-7-7-7-7-7--4-4-4-4--4-4-4-4-5-5-5-5-5-5-5-5-5-5-5-5----------------|
G#|-5-5-5-5-5-5-5-5--2-2-2-2--4-4-4-4-5-5-5-5-5-5-5-5-5-5-5-5----------------|
Eb|-5-5-5-5-5-5-5-5--2-2-2-2--2-2-2-2-3-3-3-3-3-3-3-3-3-3-3-3----------------|
G#|-5-5-5-5-5-5-5-5--2-2-2-2-------------------------------------------------|
***
Bb|---------------------------3-3-3-3-3-3-3-3-3-3-3-3-3-3-3-3----------------|
F#|-7-7-7-7-7-7-7-7--4-4-4-4--2-2-2-2-2-2-2-2-2-2-2-2-2-2-2-2----------------|
C#|-7-7-7-7-7-7-7-7--4-4-4-4--4-4-4-4-4-4-4-4-4-4-4-4-4-4-4-4----------------|
G#|-5-5-5-5-5-5-5-5--2-2-2-2--4-4-4-4-4-4-4-4-4-4-4-4-4-4-4-4----------------|
Eb|-5-5-5-5-5-5-5-5--2-2-2-2--2-2-2-2-2-2-2-2-2-2-2-2-2-2-2-2----------------|
G#|-5-5-5-5-5-5-5-5--2-2-2-2-------------------------------------------------|
****
Bb|---------------------------3-3-3-3----------------------------------------|
F#|-7-7-7-7-7-7-7-7--4-4-4-4--2-2-2-2----------------------------------------|
C#|-7-7-7-7-7-7-7-7--4-4-4-4--4-4-4-4-5-5-5-5-5-5-5-5-5-5-5-5-5-5-5-5-5-5-5-5|
G#|-5-5-5-5-5-5-5-5--2-2-2-2--4-4-4-4-5-5-5-5-5-5-5-5-5-5-5-5-5-5-5-5-5-5-5-5|
Eb|-5-5-5-5-5-5-5-5--2-2-2-2--2-2-2-2-3-3-3-3-3-3-3-3-3-3-3-3-3-3-3-3-3-3-3-3|
G#|-5-5-5-5-5-5-5-5--2-2-2-2-------------------------------------------------|
*****
Bb|--------------------------------------------------------------------------|
F#|--------------------------------------------------------------------------|
C#|-5-5-5-5-5-5-5-5----------------------------------------------------------|
G#|-5-5-5-5-5-5-5-5----------------------------------------------------------|
Eb|-3-3-3-3-3-3-3-3----------------------------------------------------------|
G#|--------------------------------------------------------------------------|
 
Riff 1
Guitar 2
*                  
Bb|--------------------------------------------------------------------------|
F#|-9-9-9-9-9-9-9-9--6-6-6-6--6-6-6-6-6-6-6-6-6-6-6-6-6-6-6-6----------------|
C#|--------------------------------------------------------------------------|
G#|-7-7-7-7-7-7-7-7--4-4-4-4--4-4-4-4-4-4-4-4-4-4-4-4-4-4-4-4----------------|
Eb|--------------------------------------------------------------------------|
G#|--------------------------------------------------------------------------|
**
Bb|--------------------------------------------------------------------------|
F#|-9-9-9-9-9-9-9-9--6-6-6-6--6-6-6-6-6-6-6-6-6-6-6-6-6-6-6-6----------------|
C#|--------------------------------------------------------------------------|
G#|-7-7-7-7-7-7-7-7--4-4-4-4--4-4-4-4-4-4-4-4-4-4-4-4-4-4-4-4----------------|
Eb|--------------------------------------------------------------------------|
G#|--------------------------------------------------------------------------|
***
Bb|--------------------------------------------------------------------------|
F#|-9-9-9-9-9-9-9-9--6-6-6-6--6-6-6-6-6-6-6-6-6-6-6-6-6-6-6-6----------------|
C#|--------------------------------------------------------------------------|
G#|-7-7-7-7-7-7-7-7--4-4-4-4--4-4-4-4-4-4-4-4-4-4-4-4-4-4-4-4----------------|
Eb|--------------------------------------------------------------------------|
G#|--------------------------------------------------------------------------|
****
Bb|--------------------------------------------------------------------------|
F#|-9-9-9-9-9-9-9-9--6-6-6-6--6-6-6-6-6-6-6-6-6-6-6-6-6-6-6-6-4-4-4-4-4-4-4-4|
C#|--------------------------------------------------------------------------|
G#|-7-7-7-7-7-7-7-7--4-4-4-4--4-4-4-4-4-4-4-4-4-4-4-4-4-4-4-4-2-2-2-2-2-2-2-2|
Eb|--------------------------------------------------------------------------|
G#|--------------------------------------------------------------------------|
*****
Bb|--------------------------------------------------------------------------|
F#|-4-4-4-4-4-4-4-4----------------------------------------------------------|
C#|--------------------------------------------------------------------------|
G#|-2-2-2-2-2-2-2-2----------------------------------------------------------|
Eb|--------------------------------------------------------------------------|
G#|--------------------------------------------------------------------------|

Breakdown 1
                 
Bb|--------------------------------------------------------------------------|
F#|--------------------------------------------------------------------------|
C#|--------------------------------------------------------------------------|
G#|-3-0-2--3-2-0--2/3\2--2/3\2-----------------3-3-2-2--3--5-----------------|
Eb|-3-0-2--3-2-0--2/3\2--2/3\2-- x4 then play -1-1-0-0--3--3-----------------|
G#|-3-0-2--3-2-0--2/3\2--2/3\2--------------------------3--------------------|
                  
                  P.M......... on last two times.
Bb|--------------------------------------------------------------------------|
F#|--------------------------------------------------------------------------|
C#|--------------------------------------------------------------------------|
G#|-3-0-2--3-2-0--2/3\2--2/3\2-----------------------------------------------|
Eb|-3-0-2--3-2-0--2/3\2--2/3\2-- x4 -----------------------------------------|
G#|-3-0-2--3-2-0--2/3\2--2/3\2-----------------------------------------------|

Breakdown Ending/Outro:
Guitar 1
Bb|--------------------------------------------------------------------------|
F#|--------------------------------------------------------------------------|
C#|--------------------------------------------------------------------------|
G#|-5-5---9------------------------------------------------------------------|
Eb|-5-5---9------------------------------------------------------------------|
G#|-5-5---9------------------------------------------------------------------|
Guitar 2
Bb|-------3------------------------------------------------------------------|
F#|-------2------------------------------------------------------------------|
C#|-0-0---4------------------------------------------------------------------|
G#|-0-0---4------------------------------------------------------------------|
Eb|--------------------------------------------------------------------------|
G#|--------------------------------------------------------------------------|

Breakdown 2

Bb|--------------------------------------------------------------------------|
F#|--------------------------------------------------------------------------|
C#|--------------------------------------------------------------------------|
G#|-3-2--3-5-----------------------------------------------------------------|
Eb|-1-0--3-5-----------------------------------------------------------------|
G#|------3-5-----------------------------------------------------------------|
  
                  P.M......... on last two times.
Bb|--------------------------------------------------------------------------|
F#|--------------------------------------------------------------------------|
C#|--------------------------------------------------------------------------|
G#|-3-0-2--3-2-0--2/3\2--2/3\2-----------------3-2--3--5---------------------|
Eb|-3-0-2--3-2-0--2/3\2--2/3\2-- x4 then play -1-0--3--5---------------------|
G#|-3-0-2--3-2-0--2/3\2--2/3\2----------------------3--5---------------------|

Bb|--------------------------------------------------------------------------|
F#|--------------------------------------------------------------------------|
C#|--------------------------------------------------------------------------|
G#|-3-0-2--3-2-0--2/3\2--2/3\2-----------------3-2--3--5---------------------|
Eb|-3-0-2--3-2-0--2/3\2--2/3\2--  then play ---1-0--3--3---------------------|
G#|-3-0-2--3-2-0--2/3\2--2/3\2----------------------3------------------------|

Bb|--------------------------------------------------------------------------|
F#|--------------------------------------------------------------------------|
C#|--------------------------------------------------------------------------|
G#|-3-0-2--3-2-0--2/3\2--2/3\2-----------------3-2--3--5---------------------|
Eb|-3-0-2--3-2-0--2/3\2--2/3\2--  then play ---1-0--3--3---------------------|
G#|-3-0-2--3-2-0--2/3\2--2/3\2----------------------3------------------------|

                  P.M......... on last two times.
Bb|--------------------------------------------------------------------------|
F#|--------------------------------------------------------------------------|
C#|--------------------------------------------------------------------------|
G#|-3-0-2--3-2-0--2/3\2--2/3\2-----------------------------------------------|
Eb|-3-0-2--3-2-0--2/3\2--2/3\2-- x4 -----------------------------------------|
G#|-3-0-2--3-2-0--2/3\2--2/3\2-----------------------------------------------|

Breakdown Ending/Outro:
Guitar 1
Bb|--------------------------------------------------------------------------|
F#|--------------------------------------------------------------------------|
C#|--------------------------------------------------------------------------|
G#|-5-5---9------------------------------------------------------------------|
Eb|-5-5---9------------------------------------------------------------------|
G#|-5-5---9------------------------------------------------------------------|
Guitar 2
Bb|-------3------------------------------------------------------------------|
F#|-------2------------------------------------------------------------------|
C#|-0-0---4------------------------------------------------------------------|
G#|-0-0---4------------------------------------------------------------------|
Eb|--------------------------------------------------------------------------|
G#|--------------------------------------------------------------------------|



metal putos !!!!!!!!!!!!!!!!!!1


Song Structure:

Intro
Verse 
Breakdown 1
Verse
Breakdown 2
Verse
Intro
Verse x2
Outro

| /  slide up
| \  slide down
| h  hammer-on
| p  pull-off
| ~  vibrato
| +  harmonic
| x  Mute note
Comments