Deftones - Hexagram Chords & Tabs

 

Hexagram Chords & Tabs

Deftones Chords & Tabs

Version: 2 Type: Tab 0 ratings
1 star 2 stars 3 stars 4 stars 5 stars
comments

Hexagram Tab

   
-------------------------------------------------------------------------------
			     Hexagram - Deftones
-------------------------------------------------------------------------------

Tabbed by:Jonathan Mojica
5/01/03
Email:xcrossx1@yahoo.com

Tuning: Low to High G#,Eb,G#,C#,F#,Bb

Riff 1
Strum
chord 1
Bb|---|
F#|-7-|
C#|-7-|x6
G#|-5-|
Eb|-5-|
G#|-5-|
then strum
Chord 2
Bb|---|
F#|-4-|
C#|-4-|x4
G#|-2-|
Eb|-2-|
G#|-2-|

Strum listen to the song for # of times to strum. 
Chord 4
Bb|-3-|
F#|-2-|
C#|-4-|
G#|-4-|
Eb|-2-|
G#|---|

Second time round play this at the end
Strum
Chord 5
Bb|---|
F#|---|
C#|-5-|
G#|-5-|
Eb|-3-|
G#|---|

Guitar 2 
Riff 1

                   Maybe more times than this is just a rough draft
Bb|---------------------------------------------------------------------------|
F#|-9-9-9-9-9-9-9--6-6-6-6-6-6-6-6-6-6----------------------------------------|
C#|---------------------------------------------------------------------------|
G#|-7-7-7-7-7-7-7--4-4-4-4-4-4-4-4-4-4----------------------------------------|
Eb|---------------------------------------------------------------------------|
G#|---------------------------------------------------------------------------|

then  

Bb|---------------------------------------------------------------------------|
F#|-9-9-9-9-9-9-9--6-6-6-6-6-6-6-6--7-7-7-7-7-7-7-7-7-7-----------------------|
C#|---------------------------------------------------------------------------|
G#|-7-7-7-7-7-7-7--4-4-4-4-4-4-4-4--5-5-5-5-5-5-5-5-5-5-----------------------|
Eb|---------------------------------------------------------------------------|
G#|---------------------------------------------------------------------------|

then 
[ Tab from: http://www.guitartabs.cc/tabs/d/deftones/hexagram_tab_ver_2.html ]
Bb|---------------------------------------------------------------------------|
F#|-9-9-9-9-9-9-9--6-6-6-6-6-6-6-6-6-6----------------------------------------|
C#|---------------------------------------------------------------------------|
G#|-7-7-7-7-7-7-7--4-4-4-4-4-4-4-4-4-4----------------------------------------|
Eb|---------------------------------------------------------------------------|
G#|---------------------------------------------------------------------------|

Bb|---------------------------------------------------------------------------|
F#|-9-9-9-9-9-9-9--6-6-6-6-6-6-6-6--7-7-7-7-7-7-7-7-7-7--4-4-4-4-4-4-4-4------|
C#|---------------------------------------------------------------------------|
G#|-7-7-7-7-7-7-7--4-4-4-4-4-4-4-4--5-5-5-5-5-5-5-5-5-5--2-2-2-2-2-2-2-2------|
Eb|---------------------------------------------------------------------------|
G#|---------------------------------------------------------------------------|


Bb|---------------------------------------------------------------------------|
F#|---------------------------------------------------------------------------|
C#|---------------------------------------------------------------------------|
G#|-3-0-2--3-2-0--2/3\2--2/3\2-----------------3-3-2-2--3--5------------------|
Eb|-3-0-2--3-2-0--2/3\2--2/3\2-- x4 then play -1-1-0-0--3--3------------------|
G#|-3-0-2--3-2-0--2/3\2--2/3\2--------------------------3---------------------|

Bb|---------------------------------------------------------------------------|
F#|---------------------------------------------------------------------------|
C#|---------------------------------------------------------------------------|
G#|---------------------------------------------------------------------------|
Eb|---------------------------------------------------------------------------|
G#|---------------------------------------------------------------------------|
| /  slide up
| \  slide down
| h  hammer-on
| p  pull-off
| ~  vibrato
| +  harmonic
| x  Mute note

===============================================================================
Comments