Deftones - Hexagram Chords & Tabs

 

Hexagram Chords & Tabs

Deftones Chords & Tabs

Version: 1 Type: Tab 0 ratings
1 star 2 stars 3 stars 4 stars 5 stars
comments

Hexagram Tab

   
Artist - Deftones
Song - Hexagram
Album - Deftones
Tuning - G# Eb Ab Db Gb Bb

Intro/verse/bridge
Some parts clean, others distorted...figure it out yourself
and also figure out the strumming yourself...

Bb--0-0-0-0----------------------------------------------------
Gb--7-7-7-7----------------------------------------------------
Db--7-7-7-7--------------4-4-4-4-------------------------------
Ab--5-5-5-5------2-2-----4-4-4-4-------------------------------
Eb---------------2-2-----2-2-2-2-------------------------------
G#---------------2-2------------------------------------------- 


Bb--0-0-0-0---------------------0-0-0-0------------------------
Gb--7-7-7-7---------------------0-0-0-0------------------------
Db--7-7-7-7--------------4-4--/-5-5-5-5------------------------
Ab--5-5-5-5------2-2-----4-4--/-5-5-5-5------------------------
Eb---------------2-2-----2-2--/-3-3-3-3------------------------
G#---------------2-2------------------------------------------- 


Chorus 1
Bb-------------------------------------------------------------
Gb-------------------------------------------------------------
Db-------------------------------------------------------------
Ab-------------------------------------------------------------
Eb--2-1-2---2-2-1--2-1-2--2-1-2--------------------------------
G#--2-1-2---2-2-1--2-1-2--2-1-2--------------------------------x4 

Bb------------------------------------------------------------- 
Gb-------------------------------------------------------------
Db------------------5------------------------------------------
Ab---8----7----3----5------------------------------------------
Eb---8----7----3----3------------------------------------------
G#---8----7----3-----------------------------------------------  

Bb-------------------------------------------------------------
Gb-------------------------------------------------------------
Db-------------------------------------------------------------
Ab-------------------------------------------------------------
Eb--2-1-2---2-2-1--2-1-2--2-1-2--------------------------------
G#--2-1-2---2-2-1--2-1-2--2-1-2--------------------------------x4 
[ Tab from: http://www.guitartabs.cc/tabs/d/deftones/hexagram_tab.html ]
Bb----------0--------------------------------------------------
Gb----------0--------------------------------------------------
Db----------0--------------------------------------------------
Ab----5--5--9--------------------------------------------------
Eb----5--5--9--------------------------------------------------
G#----5--5--9-------------------------------------------------- 

Chorus 2

(right before he starts to sing "worship, play"...play this to lead into chorus
Bb-------------------------------------------------------------
Gb-------------------------------------------------------------
Db-------------------------------------------------------------
Ab---8----7----3----5------------------------------------------
Eb---8----7----3----5------------------------------------------
G#---8----7----3----5------------------------------------------ 

Bb-------------------------------------------------------------
Gb-------------------------------------------------------------
Db-------------------------------------------------------------
Ab-------------------------------------------------------------
Eb--2-1-2---2-2-1--2-1-2--2-1-2--------------------------------
G#--2-1-2---2-2-1--2-1-2--2-1-2--------------------------------x4

Bb-------------------------------------------------------------
Gb-------------------------------------------------------------
Db-------------------------------------------------------------
Ab---8----7----3----5------------------------------------------
Eb---8----7----3----5------------------------------------------
G#---8----7----3----5------------------------------------------ 

Bb-------------------------------------------------------------
Gb-------------------------------------------------------------
Db-----------------------------------------5-------------------
Ab--------------------------------8--7--3--5-------------------
Eb--2-1-2---2-2-1--2-1-2--2-1-2---8--7--3--3-------------------
G#--2-1-2---2-2-1--2-1-2--2-1-2---8--7--3----------------------x2

Bb------------------------------------------------------------------
Gb------------------------------------------------------------------
Db------------------------------------------------------------------
Ab------------------------------------------------------------------
Eb--2-1-2---2-2-1--2-1-2--2-1-2-------------------------------------
G#--2-1-2---2-2-1--2-1-2--2-1-2-------------------------------------x4

Bb----------0-------------------------------------------------------
Gb----------0-------------------------------------------------------
Db----------0-------------------------------------------------------
Ab----5--5--9-------------------------------------------------------
Eb----5--5--9-------------------------------------------------------
G#----5--5--9-------------------------------------------------------

Thats all; just repeat the intro/verse/bridge thing over for a few more times
and thats the song..
May 19...go get it.
Comments