Deftones - Headup Chords & Tabs

 

Headup Chords & Tabs

Deftones Chords & Tabs

Version: 4 Type: Tab 0 ratings
1 star 2 stars 3 stars 4 stars 5 stars
comments

Headup Tab

   
Deftones	Headup									Guitare 1
Db-Ab-Db-Gb-Bb-eb

Intro / Passages solo
|------|	|------------------------------------------------------|
|------|	|------------------------------------------------------|
|------|	|------------------------------------------------------|
|-0~~~-|	|------------------------------------------------------|
|-0~~~-|	|------------------------------------------------------|
|-0~~~-|	|-4--2--0-2--0-2--0-2--0-2----3--2--0-2--0-2--0-2--0-2-|
 \____/   	  \______________________/
intro fade in  première fois de l'intro

Couplet
|------------------------------------------------------|
|------------------------------------------------------|
|------------------------------------------------------|
|-3--2--0-2--0-2--0-2--0-2-----------------------------|
|-3--2--0-2--0-2--0-2--0-2-----------------------------|
|-3--2--0-2--0-2--0-2--0-2----3--2--0-2--0-2--0-2--0-2-|
  \______________________/    \______________________/
             4x                          4x

Refrain
|--------------------------------------------|
|--------------------------------------------|
|--------------------------------------------|
|-4~~--4~~--4~-4/5-5---5/7/8-4~~-4~~-----3~~-|
|-2~~--2~~--2~-2/3-3---3/5/6-2~~-2~~-----3~~-|
|------------------------------------3*--3~~-|

|-----------------------------------------------|
|-----------------------------------------------|
|-----------------------------------------------| dernière fois avant le final
|-4~~--4~~--4~-4/5-5---5/7/8-4~~-4~~--------3~~-|
|-2~~--2~~--2~-2/3-3---3/5/6-2~~-2~~--------3~~-|
|------------------------------------3*~~~--3~~-|

Final
|------------------------------------------------|
|------------------------------------------------|
|------------------------------------------------|
|-2~-2~--2-2~~--2~~--7~--3~-3~--3-3~~--3~~---3~~-|
|-2~-2~--2-2~~--2~~--7~--3~-3~--3-3~~--3~~---3~~-|
|-2~-2~--2-2~~--2~~--7~--3~-3~--3-3~~--3~~---3~~-|


|------------------------------------|
|------------------------------------|
|------------------------------------|
|-3--2--0-2--0-2--0-2--0-2---3~~~~~~-|
|-3--2--0-2--0-2--0-2--0-2---3~~~~~~-|
|-3--2--0-2--0-2--0-2--0-2---3~~~~~~-|
			       \_____/
			     dernière fois

Outro (entamée lorsque la deuxième guitare insiste sur le Bb, 2nde corde)
|---------------------------------0-----------------------------------------------------------|
|------------------------------------------------------------------------0------------------0-|
|---------------------------------------------------------------------------------------------|
|---1-------1--------1--------1----------1-----/2-\1---------/2-/2---1---------/2-/2\1--------|
|-2-------2--------2--------2----------2--------------2------------2-------------------2-2----|
|---------------------------------------------------------------------------------------------|

|---------------------------------------------------------------------|
|------------------0-------------------------------------0------------|
|---------------------------------------------------------------------|
|-/2-/2\1--1---1-------/2-1---1--------1-----/2-1--1--1-------/2-1----|
|-----------2---------------2----2------------------2---------------2-|
|---------------------------------------------------------------------|

Deftones	Headup									Guitare 2
Db-Ab-Db-Gb-Bb-eb

Intro (fade in)
|---------------------------|
|---------------------------|
|---------------------------|
|-0~~~~~~~~~~~~~~~~~~~~~~~~-|
|-0~~~~~~~~~~~~~~~~~~~~~~~~-|
|-0~~~~~~~~~~~~~~~~~~~~~~~~-|
[ Tab from: http://www.guitartabs.cc/tabs/d/deftones/headup_tab_ver_4.html ]
Couplet
|------------------------------------------------------|
|------------------------------------------------------|
|------------------------------------------------------|
|-3--2--0-2--0-2--0-2--0-2-----------------------------|
|-3--2--0-2--0-2--0-2--0-2-----------------------------|
|-3--2--0-2--0-2--0-2--0-2----3--2--0-2--0-2--0-2--0-2-|
  \______________________/    \______________________/
             4x                          4x

Refrain
|--------------------------------------------|
|--------------------------------------------|
|--------------------------------------------|
|-4~~--4~~--4~-4/5-5---5/7/8-4~~-4~~-----3~~-|
|-2~~--2~~--2~-2/3-3---3/5/6-2~~-2~~-----3~~-|
|------------------------------------3*--3~~-|

|-----------------------------------------------|
|-----------------------------------------------|
|-----------------------------------------------| dernière fois avant le final
|-4~~--4~~--4~-4/5-5---5/7/8-4~~-4~~--------3~~-|
|-2~~--2~~--2~-2/3-3---3/5/6-2~~-2~~--------3~~-|
|------------------------------------3*~~~--3~~-|

Final		     (jouer un slide \\ x ici la 2nde fois, sur la 3e corde)
|------------------------------------------------||----------------------------------------|
|------------------------------------------------||----------------------------------------|
|------------------------------------------------||-9~~~~-7~~10~~~~~-7~-9~~~~-7~~10~~~~~~~-|
|-2~-2~--2-2~~--2~~--7~--3~-3~--3-3~~--3~~---3~~-||----------------------------------------|
|-2~-2~--2-2~~--2~~--7~--3~-3~--3-3~~--3~~---3~~-||-7~~~~-5~~-8~~~~~-5~-7~~~~-5~~-8~~~~~~~-|
|-2~-2~--2-2~~--2~~--7~--3~-3~--3-3~~--3~~---3~~-||----------------------------------------|
						          		      \________________/
			   						        dernière fois


|--------------------------||---------------------------|
|--------------------------||---------------------------|
|--------------------------||-9~~~~~-7~-9~~~~~~~--------|
|-3--2--0-2--0-2--0-2--0-2-||--------------------3~~~~~-|
|-3--2--0-2--0-2--0-2--0-2-||-7~~~~~-5~-7~~~~~~~-3~~~~~-|
|-3--2--0-2--0-2--0-2--0-2-||--------------------3~~~~~-|
				           \_____________/
			                    dernière fois

Outro
|-------------------------------------------------------------------------------------------------|
|----------0------0----0-------0--------0-------0-----0--------0-----0--------0----0------0---0---|
|----0-------0-----------0---------0------0-------0-----0----0---------0--------0----0-----0---0--|
|-------------1-----------------------------------------------------------------------------------|
|-2-----2------2----2-------2-------2-------2-------------2-------2-------2------------2--------2-|
|-------------------------------------------------------------------------------------------------|

|---------------------------------------------------------------------------------------------|
|-0-----0-----0-----------0-----------------------0--0-0-------------------0---------------0--|
|--0-----0-----------------------------------------------0------------------0---------------0-|
|---------------------------------------------------------------------------------------------|
|----2-----2--2-2-2-2-2-2-2---2--2--2--2-2-2-2-2-----------2----2-2-2-2-2-2-----2-2-2-2-2-2---|
|---------------------------------------------------------------------------------------------|

|---------------------------------------------------------------|
|--------------0-----------------0--------------------0---------|
|---------------0-----------------0----------------------0------|
|---------------------------------------------------------------|
|-2-2-2-2-2-2-2-----2--2-2-2-2-2----------2-2-2-2-2-2-------2-2-|
|---------------------------------------------------------------|
		     \_____________/
			    6x
Comments