Deftones - Headup Chords & Tabs

 

Headup Chords & Tabs

Deftones Chords & Tabs

Version: 2 Type: Tab 0 ratings
1 star 2 stars 3 stars 4 stars 5 stars
comments

Headup Tab

   
BAND:Deftones
ALBUM:Around The Fur
SONG:Headup

Tuning:- (half a step down and then "Dropped D")

1:Eb  4:Db
2:Bb  5:Ab
3:GB  6:Db

Intro:(After feedback)

Eb-------------------------|
Bb-------------------------|
Gb-------------------------| (i forgot how many times)
Db-------------------------|
Ab-------------------------|
Db--3--2-0-2-0-2-0-2-0-2-3-|


Verse 1: (play this when chino yells)
Eb------------------------|
Bb------------------------|
Gb------------------------| X8
Db--3--2-0-2-0-2-0-2-0-2--|
Ab--3--2-0-2-0-2-0-2-0-2--|
Db--3--2-0-2-0-2-0-2-0-2--|

about half way in the 1st vers got to this
Eb-----------------------|
Bb-----------------------|
Gb-----------------------| X4
Db-----------------------|
Ab-----------------------|
Db--3-2-0-2-0-2-0-2-0-2--|

Verse 2:
Eb------------------------|
Bb------------------------|
Gb------------------------| X8
Db--3--2-0-2-0-2-0-2-0-2--|
Ab--3--2-0-2-0-2-0-2-0-2--|
Db--3--2-0-2-0-2-0-2-0-2--|
[ Tab from: http://www.guitartabs.cc/tabs/d/deftones/headup_tab_ver_2.html ]
Chorus:                       soulfly...........
Eb----------------------------------------|
Bb----------------------------------------|
Gb----------------------------------------| X4
Db--9-9-9-9-9-9-9-10-12-9-9-(7)-----------|
Ab--9-9-9-9-9-9-9-10-12-9-9-(7)-----------|
Db--9-9-9-9-9-9-9-10-12-9-9-(7)-----------|

Interlude:
Eb-----------------------|
Bb-----------------------|
Gb-----------------------| X2
Db-----------------------|
Ab-----------------------|
Db--3-2-0-2-0-2-0-2-0-2--|

Verse 3:
Eb------------------------|
Bb------------------------|
Gb------------------------| X8
Db--3--2-0-2-0-2-0-2-0-2--|
Ab--3--2-0-2-0-2-0-2-0-2--|
Db--3--2-0-2-0-2-0-2-0-2--|

Chorus:
Eb----------------------------------------|
Bb----------------------------------------|
Gb----------------------------------------| X4
Db--9-9-9-9-9-9-9-10-12-9-9-(7)-----------|
Ab--9-9-9-9-9-9-9-10-12-9-9-(7)-----------|
Db--9-9-9-9-9-9-9-10-12-9-9-(7)-----------|

Break:
Eb----------------|
Bb----------------|
Gb----------------|
Db--3-------------|
Ab--3-(let ring)--|
Db--3-------------|

Heavy Bridge:("walk into this world")
Eb--------------------------|
Bb--------------------------|
Gb--------------------------| X8
Db--2-2-X-2-2-/-7-\-3-3-3-3-|
Ab--2-2-X-2-2-/-7-\-3-3-3-3-|
Db--2-2-X-2-2-/-7-\-3-3-3-3-|

Outro:("Headup, Headup" etc.)
Eb------------------------|
Bb------------------------|
Gb------------------------| X8
Db--3--2-0-2-0-2-0-2-0-2--|
Ab--3--2-0-2-0-2-0-2-0-2--|
Db--3--2-0-2-0-2-0-2-0-2--|

Comments