Deftones - Headup Chords & Tabs

 

Headup Chords & Tabs

Deftones Chords & Tabs

Version: 3 Type: Bass Tab 0 ratings
1 star 2 stars 3 stars 4 stars 5 stars
comments

Headup Bass Tab

   
Band: Deftones
Album: Around the fur
Song: Headup (9)
Tapped by MrGentlman@aol.comDrop Db (or C#) Tuning


Riff 1 (verse)

G |---------------------|
D |---------------------|   Repeat ?x
A |---------------------|  
Db|-2-1-0-1-0-1-0-1-0-1-|


Riff 2 (chorus)

G |-------------------------|
D |-------------------------|   Repeat ?x
A |-------------------------|   
Db|-8--8--8-9-10-11-8--8----|

[ Tab from: http://www.guitartabs.cc/tabs/d/deftones/headup_btab_ver_3.html ]
Between Riff 2 and Riff 3 play this note

G |---------|
D |---------|
A |---------|
Db|-2-------|


Riff 3 (bridge)

G |---------------------------------|
D |---------------------------------| Repeat ?x
A |---------------------------------|
Db|-1-1-0-1--1-1/6-2-2-0-2--2-2-0-2-|


Riff 4 (autro)

G |--------------------------| 
D |--------------------------| fade out
A |--------------------------|
Db|-8-10-8----/12-10-8-10----|
Comments