Deftones - Headup Chords & Tabs

 

Headup Chords & Tabs

Deftones Chords & Tabs

Version: 2 Type: Bass Tab 0 ratings
1 star 2 stars 3 stars 4 stars 5 stars
comments

Headup Bass Tab

   
Deftones - "Headup" off of "AROUND THE FUR"        *DROP D*


-Guitar plays for awhile , then you join in when the singer starts

G-----------------------------------------------------|
D-----------------------------------------------------|    Repeat x??
A-----------------------------------------------------|  
D--3-2-0-2-0-2-0-2-0-1--------------------------------|

G-----------------------------------------------------|
D-----------------------------------------------------|    Play with the
rythym of the
A-----------------------------------------------------|    Guitar (there
may not be this many notes)
D--8-8-8-8-8-8-8-8-8-8-8-8-8-8-8-8-8-8----------------|


    I'm sorry I didn't really do a go tab but this the main parts of the
song. I still haven't
    figured out the part when he's screaming "WELCOME TO THIS WORLD" so
you can figure that part
    out for yourself.

[ Tab from: http://www.guitartabs.cc/tabs/d/deftones/headup_btab_ver_2.html ]
Also heres some of the 2nd song on "Around the Fur" and some corrections
on ONE WEEK(from adrenaline)


Drop d:

*Main Riff*

D--0h2-2-2-0h2-2-2-0h2-2-2-0h2-3-3--|

*Chorus*

D--5-5-5-5-5-5-5-5-5-5-3-3-3-3-3-3-3-3-7-7-7-7-7-7--| (not sure if this
part is right, plus the notes might
be                                                              played
longer...wait i know they are:-)


Corrections for ONE WEEK - the corrections are for the Chorus...which
goes like this:

A--4-4-----------------------------------------------------|
E-------4-4--0-0-0-0-0-0--2h3-3-3-2-2-2-2-5-5-5-5-3-3-3-3--|  It maybe
like this or..

A--4-4-------------------------------------------------|
E-------4-4--0-0-0-0-0-0-0--2h3-3-3-2-2-2-5-5-5-3-3-3--|  like this, I
can't remember. (All the notes
are                                                                
right, I just maybe missing one or two)


Have Fun
Comments