Deftones - Good Morning Beautiful Chords & Tabs

 

Good Morning Beautiful Chords & Tabs

Deftones Chords & Tabs

Version: 6 Type: Tab 0 ratings
1 star 2 stars 3 stars 4 stars 5 stars
comments

Good Morning Beautiful Tab

   
-------------------------------------------------------------------------------
		     Good Morning Beautiful - Deftones
-------------------------------------------------------------------------------

Tabbed by:Cross
7/16/03
Email:xcrossx1@yahoo.com
I finally decided to release my tabs to the public (check the bottom for the 
reason why I didn't in the first place).

Tuning: Here is Stephen's REAL tuning G#,C#,F#,B,E,G#,C#. Thats 4 1/2 steps down
from regular tuning and 2 1/2 steps down for 7 string. I play these on a regular
Guitar so I don't have the extra C# but it still sounds 99-100% correct.

Intro/Chorus Ending
C#|-0--0--0--0----|
G#|-0--0--0--0----|
E |-4--4--4--4----|
B |-2--2--2--2----|
F#|-0--0--0--0----|
C#|-0--0--0--0----|
G#|---------------|

Verse
C#|------------------------------------0-0-0-0-0-0-0-0-0-0-0-----------------|
G#|------------------------------------0-0-0-0-0-0-0-0-0-0-0-----------------|
E |-6-6-6-6-6-6-6-6-6-6-6-6-6-6-6-6----4-4-4-4-4-4-4-4-4-4-4-----------------|
B |-4-4-4-4-4-4-4-4-4-4-4-4-4-4-4-4----2-2-2-2-2-2-2-2-2-2-2-----------------|
F#|------------------------------------0-0-0-0-0-0-0-0-0-0-0-----------------|
C#|------------------------------------0-0-0-0-0-0-0-0-0-0-0-----------------|
G#|--------------------------------------------------------------------------|

Verse Ending
C#|-0-0-0-0-0-0-0-0-0-0-0-0-0-0-0-0-0-0-0-0-0-0-0-0-0-0-0-0-0-0-0-0----------|
G#|-0-0-0-0-0-0-0-0-0-0-0-0-0-0-0-0-0-0-0-0-0-0-0-0-0-0-0-0-0-0-0-0----------|
E |-4-4-4-4-4-4-4-4-4-4-4-4-4-4-4-4-4-4-4-4-4-4-4-4-4-4-4-4-4-4-4-4----------|
B |-2-2-2-2-2-2-2-2-2-2-2-2-2-2-2-2-2-2-2-2-2-2-2-2-2-2-2-2-2-2-2-2----------|  
F#|-0-0-0-0-0-0-0-0-0-0-0-0-0-0-0-0-0-0-0-0-0-0-0-0-0-0-0-0-0-0-0-0----------|
C#|-0-0-0-0-0-0-0-0-0-0-0-0-0-0-0-0-0-0-0-0-0-0-0-0-0-0-0-0-0-0-0-0----------|
G#|--------------------------------------------------------------------------|
[ Tab from: http://www.guitartabs.cc/tabs/d/deftones/good_morning_beautiful_tab_ver_6.html ]
Chorus   Sometimes he only plays this part once
                       | 
C#|--------------------0-0---------------------------------------------------|
G#|--------------------0-0---------------------------------------------------|
E |--------------------4-4---------------------------------------------------|
B |--------------------2-2---------------------------------------------------|
F#|-3-3-3-x-3--3-3-3-x-0-0---------------------------------------------------|
C#|-3-3-3-x-3--3-3-3-x-0-0---------------------------------------------------|
G#|-1-1-1-x-1--1-1-1-x-------------------------------------------------------|

Intro/Chorus Ending
C#|-0--0--0--0----|
G#|-0--0--0--0----|
E |-4--4--4--4----|
B |-2--2--2--2----|
F#|-0--0--0--0----|
C#|-0--0--0--0----|
G#|---------------|


Breakdown

C#|-0-0-0-0-0-0-0-0-0-0-0-0-0-0-0-0-0-0-0-0-0-0-0-0-0-0-0-0-0-0-0-0----------|
G#|-0-0-0-0-0-0-0-0-0-0-0-0-0-0-0-0-0-0-0-0-0-0-0-0-0-0-0-0-0-0-0-0----------|
E |-x-x-x-x-x-x-x-x-x-x-x-x-x-x-x-x-x-x-x-x-x-x-x-x-x-x-x-x-x-x-x-x----------|
B |-5-5-5-5-5-5-5-5-5-5-5-5-5-5-5-5-9-9-9-9-9-9-9-9-9-9-9-9-9-9-9-9----------|
F#|-5-5-5-5-5-5-5-5-5-5-5-5-5-5-5-5-9-9-9-9-9-9-9-9-9-9-9-9-9-9-9-9----------|
C#|-3-3-3-3-3-3-3-3-3-3-3-3-3-3-3-3-7-7-7-7-7-7-7-7-7-7-7-7-7-7-7-7----------|
G#|--------------------------------------------------------------------------|
Breakdown ending
C#|-0-0-0-0-0-0-0-0-0-0-0-0-0-0-0-0-0-0-0-0-0-0-0-0-0-0-0-0-0-0-0-0----------|
G#|-0-0-0-0-0-0-0-0-0-0-0-0-0-0-0-0-0-0-0-0-0-0-0-0-0-0-0-0-0-0-0-0----------|
E |-x-x-x-x-x-x-x-x-x-x-x-x-x-x-x-x-x-x-x-x-x-x-x-x-x-x-x-x-x-x-x-x----------|
B |-7-7-7-7-7-7-7-7-7-7-7-7-7-7-7-7-7-7-7-7-7-7-7-7-7-7-7-7-7-7-7-7----------|
F#|-7-7-7-7-7-7-7-7-7-7-7-7-7-7-7-7-7-7-7-7-7-7-7-7-7-7-7-7-7-7-7-7----------|
C#|-5-5-5-5-5-5-5-5-5-5-5-5-5-5-5-5-5-5-5-5-5-5-5-5-5-5-5-5-5-5-5-5----------|
G#|--------------------------------------------------------------------------|

Song Structure:
Intro/Chorus Ending
Verse x4
Verse Ending x1
Chorus x8
Intro/Chorus Ending
Verse x4
verse Ending
Chorus x8
Intro/Chorus Ending x1
Breakdown x4
Breakdown ending x1
Chorus x15
Intro/Chorus Ending x1

P.S. I would like to send out a BIG Fuck You to all you faggots that stole 
credit for my old tabs. 
Fuck You: 
Cenif (this guy deserves a MEGA FUCK YOU) cenif@hotmail.com 
Miguel Garzón knick_knack_666@hotmail.com
SAM ROWLANDS dead_evil4@hotmail.com  You NUTT BITING FAGGOTS
There were more but I guess reporting they're asses got them taken off before
I could get there info, Thieving biatchez.

| /  slide up
| \  slide down
| h  hammer-on
| p  pull-off
| ~  vibrato
| +  harmonic
| x  Mute note

===============================================================================
Comments