Deftones - Good Morning Beautiful Chords & Tabs

 

Good Morning Beautiful Chords & Tabs

Deftones Chords & Tabs

Version: 5 Type: Tab 0 ratings
1 star 2 stars 3 stars 4 stars 5 stars
comments

Good Morning Beautiful Tab

Artist: Deftones
Album: Self-titled
Song: Good Morning Beautiful
Tuning: AEADFB

My version of Good Morning Beautiful (which is, hands down, the best song on this album)

Intro and verse (0:00 -> 0:30): 

B ---------------------
F ---------------------
D --3-3-3-3-----------
A --3-3-3-3--5-5-5-5-5-- Just keep repeating this until the chorus
E --1-1-1-1--5-5-5-5-5--
A -----------5-5-5-5-5--

"One of these days, you'll break me of many things. 
Some cold white day, but you're crazy if you think I would leave you this way..."

Chorus (0:31 -> 0:54) (there's some ringing after the 0s which I can't figure out):

B ----------------------
F ----------------------
D ----------------------
A --0-0-x-0-0-0-0------
E --0-0-x-0-0-0-0-------
A --0-0-x-0-0-0-0------

"You should wake up before the wrath comes, 
(me and you) could take of (take off) before the wrath comes...soon..."
[ Tab from: http://www.guitartabs.cc/tabs/d/deftones/good_morning_beautiful_tab_ver_5.html ]
Repeat intro+verse (0:55 -> 01:25)

"B ---------------------
F ---------------------
D --3-3-3-3-----------
A --3-3-3-3--5-5-5-5-5-- 
E --1-1-1-1--5-5-5-5-5-- Repeat
A -----------5-5-5-5-5--

"And one of these days I pray it will be sometime soon. 
On a day like today, you'd be crazy not to want me to teach you the way..."

Repeat chorus (01:26 -> 01:48)

Bridge (01:49 -> 02:17)

B ----------------------
F ----------------------
D ----------------------
A -66666/10-10-10-10---
E -66666/10-10-10-10--- Repeat until the verge of the chorus again
A -66666/10-10-10-10---

"Well I know what you're like - I've read it on the walls
You're too tired, you choose heaven over the earth and me..."

(02:18 -> 02:22)

B ----------------
F -----------------
D -----------------
A ---8888888------
E ---8888888------
A ---8888888------

"but come on... please..."

Repeat chorus and then repeat the intro at the end


Simple really.
Comments