Deftones - Good Morning Beautiful Chords & Tabs

 

Good Morning Beautiful Chords & Tabs

Deftones Chords & Tabs

Version: 1 Type: Tab 0 ratings
1 star 2 stars 3 stars 4 stars 5 stars
comments

Good Morning Beautiful Tab

   
Artist: Deftones
Album: Deftones
Song: Good morning beautiful
Tuning: G# Eb Ab Db Gb Bb
(1/2 step down...G# 1 1/2 step down from standard B)

Intro/verse
Bb--0-0-0-0----------------------------------------------
Gb--0-0-0-0----------------------------------------------
Db--5-5-5-5-------------------10-10-10-10-10-10-10-10----
Ab--5-5-5-5---7-7-7-7-7-7-7-7-10-10-10-10-10-10-10-10----
Eb--3-3-3-3---7-7-7-7-7-7-7-7--8--8--8--8--8--8--8--8----
G#------------7-7-7-7-7-7-7-7----------------------------

-last part before chorus
Bb--0-0-0-0-0-0-0-0---------------------------------------
Gb--0-0-0-0-0-0-0-0---------------------------------------
Db--5-5-5-5-5-5-5-5---------------------------------------
Ab--5-5-5-5-5-5-5-5---------------------------------------
Eb--3-3-3-3-3-3-3-3---------------------------------------
G#--------------------------------------------------------

Chorus
#1
Bb--------------------------------------------------------
Gb--------------------------------------------------------
Db--------------------------------------------------------
Ab--1-1-1--1--1-1-1-1-----5-5-5---------------------------
Eb--1-1-1--1--1-1-1-1-----5-5-5---------------------------
G#--1-1-1--1--1-1-1-1-----5-5-5---------------------------

#2
Bb------------------------0-------------------------------
Gb------------------------0-------------------------------
Db------------------------0-------------------------------
Ab--1-1-1--1--1-1-1-1-----5-------------------------------
Eb--1-1-1--1--1-1-1-1-----5-------------------------------
G#--1-1-1--1--1-1-1-1-----5-------------------------------
[ Tab from: http://www.guitartabs.cc/tabs/d/deftones/good_morning_beautiful_tab.html ]
# 3 - last part of chorus play this
Bb--------------------------------------------------------
Gb--------------------------------------------------------
Db--------------------------------------------------------
Ab--1-1-1--1--1-1-1-1-------------------------------------
Eb--1-1-1--1--1-1-1-1-------------------------------------
G#--1-1-1--1--1-1-1-1-------------------------------------
then it leads into intro/verse thingy

---play #1, #2, #1, #2, #1, #2, #1, and then #3 

Bridge 
(not exact strumming)
Bb--------------------------------------------------------
Gb--------------------------------------------------------
Db-------------------7-7-7-7-7-7-7-7----------------------
Ab--8-8-8-8-8-8-8-8--7-7-7-7-7-7-7-7----------------------
Eb--8-8-8-8-8-8-8-8--5-5-5-5-5-5-5-5----------------------
G#--8-8-8-8-8-8-8-8---------------------------------------
play this once only

Bb--------------------------------------------------------
Gb--------------------------------------------------------
Db------------------7-7-7-7-7-7-7-7-----------------------
Ab--8-8-8-8-8-5-5-5-7-7-7-7-7-7-7-7-----------------------
Eb--8-8-8-8-8-5-5-5-5-5-5-5-5-5-5-5-----------------------
G#--8-8-8-8-8-5-5-5---------------------------------------
then play this 3 times

Bb--------------------------------------------------------
Gb--------------------------------------------------------
Db--5-5-5-5-5-5-5-5-5-5-5-5-5-----------------------------
Ab--5-5-5-5-5-5-5-5-5-5-5-5-5-----------------------------
Eb--3-3-3-3-3-3-3-3-3-3-3-3-3-----------------------------
G#--------------------------------------------------------
play this until chorus

Ending
Bb--0-0-0-0-----------------------------------------------
Gb--0-0-0-0-----------------------------------------------
Db--5-5-5-5-----------------------------------------------
Ab--5-5-5-5-----------------------------------------------
Eb--3-3-3-3-----------------------------------------------
G#--------------------------------------------------------
Comments