Deftones - Fireal Chords & Tabs

 

Fireal Chords & Tabs

Deftones Chords & Tabs

Version: 1 Type: Tab 0 ratings
1 star 2 stars 3 stars 4 stars 5 stars
comments

Fireal Tab

Band Name=Deftones
Song Name=Fireal - Swords (live ver.)
Instrument=guitar
tab=normal tuning

riff 1
E -------------------------------------------------------------------
B ---------3--------3--------3--------3-------3-------3--------------
G -----3----3-----3--3-----3--3-----3--3----3--3----3--3-------------
D -------5---5--------5----------------------------------------------
A -------------------------------------------------------------------
E ---3---------3---------3--------3-------0-------0------------------
[ Tab from: http://www.guitartabs.cc/tabs/d/deftones/fireal_tab.html ]
riff 2
E -------------------------------------------------------------------
B -------------------------------------------------------------------
G -------------------------------------------------------------------
D ---5/4-4-5/4-4-4---5/4-4-5/4-4-4---5/4-4-5/4-4-4---5/4-4-5/4-4-3---
A ---5/4-4-5/4-4-4---5/4-4-5/4-4-4---5/4-4-5/4-4-4---5/4-4-5/4-4-3---
E ---3/2-2-3/2-2-2---3/2-2-3/2-2-2---3/2-2-3/2-2-2---3/2-2-3/2-2-1---

mellow part
E -------------------------------------------------------------------
B -------------------------------------------------------------------
G -------------------------------------------------------------------
D ---8-8-8-8--12-12---------9-5--------5--8-7-7--5-------------------
A ---6-6-6-6--10-10---10----------7-7--3--6-5-5--3-------------------
E ------------------10------------5-5--------------------------------

heavy part
E -------------------------------------------------------------------
B -------------------------------------------------------------------
G ---8-8-8-8--------------5-8-7-7-5-5--------------------------------
D ---8-8-8-8--5-5-5-5-7-7-5-8-7-7-5-5--------------------------------
A ---6-6-6-6--5-5-5-5-7-7-3-6-5-5-3-3--------------------------------
E ---6-6-6-6--3-3-3-3-5-5-3-6-5-5-3-3--------------------------------

if you have any questions or comments send it to the email address above
Comments