Deftones - Feiticeira Chords & Tabs

 

Feiticeira Chords & Tabs

Deftones Chords & Tabs

Version: 3 Type: Tab 0 ratings
1 star 2 stars 3 stars 4 stars 5 stars
comments

Feiticeira Tab

   
Deftones	Feiticeira						
C-G-C-F-A-D

Mur d'harmoniques
|------------------------------------------------------------------------------------------|
|------------------------------------------------------------------------------------------|
|------------------------------------------------------------------------------------------|
|-------------------------------4p0-4p0-0-8---------------4p0-4p0-0-8--------------8-0-4-0-|
|-10*9*9*9*10*9*9*9*10*10*10*xx-4p0-4p0-0-8-9*9*10*9*9*xx-4p0-4p0-0-8-9*9*10*9*9*--8-0-4-0-|
|-10*9*9*9*10*9*9*9*10*10*10*xx-4p0-4p0-0-8-9*9*10*9*9*xx-4p0-4p0-0-8-9*9*10*9*9*--8-0-4-0-|
  \_______________________________________/                           \___________________/
                première fois							dernière fois

Couplet
|---------------------------------|
|---------------------------------|
|---6-6-6-6-6-6-6-6-6-6-6---------|
|-4-6-6-6-6-6-6-6-6-6-6-6-8-0-4-0-|
|-4-4-4-4-4-4-4-4-4-4-4-4-8-0-4-0-|
|-4-----------------------8-0-4-0-|

Passage athmosphérique
|--------------------------||---------|
|--------------------------||---------|
|-10~~~~~--------10~~~~~b~-||---------| fill joué la
|--------------------------||-8-0-4-0-| dernière fois
|--8~~~~~---------8~~~~~b~-||-8-0-4-0-|
|---------0~~~~~-----------||-8-0-4-0-|
[ Tab from: http://www.guitartabs.cc/tabs/d/deftones/feiticeira_tab_ver_3.html ]
Pont
|-----------------------------------------------------------------|
|-------------------------------------------------5*5*5*5*5*5*5*~-|
|---------------------------------5*5*5*5*5*5*5*5*5*5*5*5*5*5*5*~-|
|-5*5*5*5*5*5*5*5*5*5*5*5*5*5*5*5*5*5*5*5*5*5*5*5*----------------|
|-5*5*5*5*5*5*5*5*5*5*5*5*5*5*5*5*--------------------------------|
|-----------------------------------------------------------------|

Final
|-----------------------------------------------------------------|
|-----------------------------------------------------------------|
|-1010101010101010101010101010----1010101010101010101010101010~b~-| la 4e x, les deux dernières
|-----------------------------------------------------------------| notes sont toujours jouées en 8
|--8-8-8-8-8-8-8-8-8-8-8-8-8-8-----8-8-8-8-8-8-8-8-8-8-8-8-8-8~b~-|
|------------------------------0~---------------------------------|

|--0-0-0-0-0-0-0-0-0-0-0-0-0-0-0~--0-0-0-0-0-0-0-0-0-0-0-0-0-0-0~--||-----------|
|------------------------------------------------------------------||-----------|
|-101010101010101010101010101010-\-6-6-6-6-6-6-6-6-6-6-6-6-6-6-6-/-||-10~~~~~~~-|
|------------------------------------------------------------------||-----------|
|--8-8-8-8-8-8-8-8-8-8-8-8-8-8-8-\-4-4-4-4-4-4-4-4-4-4-4-4-4-4-4-/-||--8~~~~~~~-|
|------------------------------------------------------------------||--0~~~~~~~-|
Comments