Deftones - Engine No 9 Chords & Tabs

 

Engine No 9 Chords & Tabs

Deftones Chords & Tabs

Version: 3 Type: Tab 0 ratings
1 star 2 stars 3 stars 4 stars 5 stars
comments

Engine No 9 Tab

   
Deftones	Engine #9
E-A-D-G-B-E

Intro
|-----------------------------0~~---------------------------------|
|-----------------------------0~~---------------------------------|
|-----------------------------0~~---------------------------------|
|-----------------------------0~~---------------------------------|
|-----------------------------------------------------------------|
|-2-3-2-0-2-3-2-0-2-3-2-0-2-3------2-3-2-0-2-3-2-0-2-3-2-0-2-3-5~-|

Thème
|-----------------------------0~~---------------------------------|
|-----------------------------0~~---------------------------------|
|-----------------------------0~~---------------------------------|
|-4-5-4---4-5-4---4-5-4---4-5------4-5-4---4-5-4---4-5-4---4-5-7~-|
|-4-5-4---4-5-4---4-5-4---4-5------4-5-4---4-5-4---4-5-4---4-5-7~-|
|-2-3-2-0-2-3-2-0-2-3-2-0-2-3------2-3-2-0-2-3-2-0-2-3-2-0-2-3-5~-|

Refrain									  
|-------0~~--------0~~--------0~~--------0~~-------------------------||-------|
|-------0~~--------0~~--------0~~--------0~~-------------------------||-------| dernière fois
|-------0~~--------0~~--------0~~--------0~~-------------------------||-------| avant le pont
|-4--4--0~~--4--4--0~~--4--4--0~~--4--4--0~~--8----8-8--7---7--5/7\5-||-4~~~~-|
|-4--4-------4--4-------4--4-------4--4-------8----8-8--7---7--5/7\5-||-4~~~~-|
|-2--2-------2--2-------2--2-------2--2-------6----6-6--5---5--3/5\3-||-2~~~~-|
[ Tab from: http://www.guitartabs.cc/tabs/d/deftones/engine_no_9_tab_ver_3.html ]
1er Couplet
|-----------------------------0~~----------------------------------|
|-----------------------------0~~----------------------------------|
|-----------------------------0~~----------------------------------|
|-----------------------------0~~----------------------------------|
|------------------------------------------------------------------|
|-2-3-2-0-2-3-2-0-2-3-2-0-2-3------2-3-2-0-2-3-2-0-2-3-2-0-2-3-5~~-|
  ...........................      ...........................
				      \_____________________________/
                          la 4e fois, sans PM et en laissant sonner l'accord ouvert

Second couplet
|-----------------------------0~~------------------------------0~~----------------------------------|
|-----------------------------0~~------------------------------0~~----------------------------------|
|-----------------------------0~~------------------------------0~~----------------------------------|
|-----------------------------0~~------------------------------0~~----------------------------------|
|---------------------------------------------------------------------------------------------------|
|-2-3-2-0-2-3-2-0-2-3-2-0-2-3------2-3-2-0-2-3-2-0-2-3-2-0-2-3------2-3-2-0-2-3-2-0-2-3-2-0-2-3-5~~-|
                                   ...........................      ...........................

|-----------------------------0~~~~~~~~~~~~~~~~~~~~~~~~~~~~~~~~----|
|-----------------------------0~~~~~~~~~~~~~~~~~~~~~~~~~~~~~~~~----|
|-----------------------------0~~~~~~~~~~~~~~~~~~~~~~~~~~~~~~~~----|
|-----------------------------0~~~~~~~~~~~~~~~~~~~~~~~~~~~~~~~~----|
|------------------------------------------------------------------|
|-2-3-2-0-2-3-2-0-2-3-2-0-2-3------2-3-2-0-2-3-2-0-2-3-2-0-2-3-5~~-|
  ...........................

Pont
|-------------------------------------------------------------------------------------|
|-------------------------------------------------------------------------------------|
|-------------------------------------------------------------------------------------|
|-4--0-4--0-4--0-4----2h3-2~----4/5----4----4------------2~---3-3-3-3-3-3-3-3-3-3-3-3-|
|-4--0-4--0-4--0-4----0h1-2~----4/5----4----4--------0h1-2~---3-3-3-3-3-3-3-3-3-3-3-3-|
|-2--0-2--0-2--0-2--------0~----2/3-00-2--0-2--0-2-3-----0~---1-1-1-1-1-1-1-1-1-1-1-1-|
                                    ..    .                   .......................
  \________________________/    \_________________________/
              4x                            8x
Comments