Deftones - Engine No 9 Chords & Tabs

 

Engine No 9 Chords & Tabs

Deftones Chords & Tabs

Version: 2 Type: Tab 0 ratings
1 star 2 stars 3 stars 4 stars 5 stars
comments

Engine No 9 Tab

          Engine No.9-Deftones

          Riff 1-Palm mute E string during verse
          e||------------------------------x----------------------------------||
          b||------------------------------0----------------------------------||
          G||------------------------------0----------------------------------||
          D||------------------------------0----------------------------------||
          A||------------------------------x----------------------------------||
          E||--2-3-2-0-2-3-2-0-2-3-2-0-2-3---2-3-2-0-2-3-2-0-2-3-2-0-2-3-5----||

          Riff 2-also behind "peers I flow & mother she..." part
          e||------------------------------x----------------------------------||
          b||------------------------------0----------------------------------||
          G||------------------------------0----------------------------------||
          D||------------------------------0----------------------------------||
          A||--4-5-4-2-4-5-4-2-4-5-4-2-4-5-x-4-5-4-2-4-5-4-2-4-5-4-2-4-5-7----||
          E||--2-3-2-0-2-3-2-0-2-3-2-0-2-3---2-3-2-0-2-3-2-0-2-3-2-0-2-3-5----||
[ Tab from: http://www.guitartabs.cc/tabs/d/deftones/engine_no_9_tab_ver_2.html ]
          Riff 3--Chorus
          e||--------x----||---------------------||
          b||--------0----||---------------------||
          G||-------x0----||--3-----2------------||
          D||--4-4--x0----||--3---3-2---2--------||
          A||--4-4--------||--1---1-0---0-5/7\5--||
          E||--2-2--------||--------------3/5\3--||
                    **
          Bridge
          e||-----------------------------||
          b||-----------------------------||  Bass plays
          G||-----------------------------||  this first,
          D||-----------------------------||  then guitar
          A||--4--2-4--2-4--2-4----7/8-2--||  comes in
          E||--2--0-2--0-2--0-2--0-5/6-0--||

          Riff4
          e||-------------------------------||
          b||-------------------------------||
          G||-------------------------------||  This might be easier fretting the
          D||-------------------------------||  Bb & A chords in first position
          A||--4/5----4----4----4/5--7/8-2--||  (zero and 1st fret on A
          E||--2/3-00-2--0-2--0-2/3--5/6-0--||

          Fill 1--before chorus
          e||-------------------------||
          b||-------------------------||
          G||-------------------------||
          D||--3-3-3-3--3-3-3-3--3-3--||
          A||--3-3-3-3--3-3-3-3--3-3--||
          E||--1-1-1-1--1-1-1-1--1-1--||
Comments