Deftones - Engine No 9 Chords & Tabs

 

Engine No 9 Chords & Tabs

Deftones Chords & Tabs

Version: 1 Type: Tab 0 ratings
1 star 2 stars 3 stars 4 stars 5 stars
comments

Engine No 9 Tab

   
Song:ENGINE NO. 9
Band:Deftones
Album:Adrenaline
Tabbed by:Stephen-slipknot_666_8@yahoo.com	
Tuning:Drop D Low to High (D A D G B E)
this is my first time tabbing a song 
but i was fuckin around and i figured it out 
so i apologize if i am wrong but here ya go 
hope you enjoy...very fun song to play

this song is played with high gain and sounds good with the eq set to the bass at 1 mid at 0 and treble at 5.5

Intro pt one-heavy distortion    2 times
E------------------------------x-----------------------------------||
B------------------------------0-----------------------------------||
G------------------------------0-----------------------------------||
D------------------------------0-----------------------------------|| 
A------------------------------x-----------------------------------||
D--2-3-2-0-2-3-2-0-2-3-2-0-2-3---2-3-2-0-2-3-2-0-2-3-2-0-2-3-5-----||

intro pt two-heavy distortion     2 times
E------------------------------x-----------------------------------||
B------------------------------0-----------------------------------||
G------------------------------0-----------------------------------||
D------------------------------0-----------------------------------|| 
A--4-5-4-2-4-5-4-2-4-5-4-2-4-5-x-4-5-4-2-4-5-4-2-4-5-4-2-4-5-7-----||
D--4-5-4-2-4-5-4-2-4-5-4-2-4-5---4-5-4-2-4-5-4-2-4-5-4-2-4-5-7-----||

intro pt three-heavy distortion    2 times
E------x---|		|--------------------||
B------0---|		|--------------------||
G------0---|4x and	|--3--3-2--2---------||
D--4-4-0---|then play 	|--3--3-2--2---------|| 
A--4-4-x---|this==>	|--1--1-0--0-5/7\5---||
D--4-4-----|		|------------5/7\5---||

verse-palm mute-heavy distortion   This aint no motherfuckin'...  2 times
E------------------------------x----------------------------------||
B------------------------------0----------------------------------||
G------------------------------0----------------------------------||
D------------------------------0----------------------------------|| 
A------------------------------x----------------------------------||
D--2-3-2-0-2-3-2-0-2-3-2-0-2-3---2-3-2-0-2-3-2-0-2-3-2-0-2-3-5----||
   . . . . . . . . . . . . . . . . . . . . . . . . . . . . . .

FILL 1 at end of verse-heavy distortion
E--x-x-x-x-x--||
B--0-0-0-0-0--||
G--0-0-0-0-0--||
D--0-0-0-0-0--||
A--x-x-x-x-x--||
D-------------||
[ Tab from: http://www.guitartabs.cc/tabs/d/deftones/engine_no_9_tab.html ]
pre chorus-heavy distortion   Peers I flow...  2 times
E------------------------------x----------------------------------||
B------------------------------0----------------------------------||
G------------------------------0----------------------------------||
D------------------------------0----------------------------------|| 
A--4-5-4-2-4-5-4-2-4-5-4-2-4-5-x-4-5-4-2-4-5-4-2-4-5-4-2-4-5-7----||
D--4-5-4-2-4-5-4-2-4-5-4-2-4-5---4-5-4-2-4-5-4-2-4-5-4-2-4-5-7----||

chorus-heavy distortion   My Life is...  2 times
E------x---|		|--------------------||
B------0---|		|--------------------||
G------0---|4x and	|--3--3-2--2---------||  
D--4-4-0---|then play 	|--3--3-2--2---------|| 
A--4-4-x---|this==>	|--1--1-0--0-5/7\5---||
D--4-4-----|		|------------5/7\5---||

verse 2-palm mute-heavy distortion      Get strike quicken...  2 times
E------------------------------x----------------------------------||
B------------------------------0----------------------------------||
G------------------------------0----------------------------------||
D------------------------------0----------------------------------|| 
A------------------------------x----------------------------------||
D--2-3-2-0-2-3-2-0-2-3-2-0-2-3---2-3-2-0-2-3-2-0-2-3-2-0-2-3-5----||
   . . . . . . . . . . . . . . . . . . . . . . . . . . . . . .

FILL 1 at end of verse-heavy distortion
E--x-x-x-x-x--||
B--0-0-0-0-0--||
G--0-0-0-0-0--||
D--0-0-0-0-0--||
A--x-x-x-x-x--||
D-------------||

pre chorus-heavy distortion   Peers I flow...  2 times
E------------------------------x----------------------------------||
B------------------------------0----------------------------------||
G------------------------------0----------------------------------||
D------------------------------0----------------------------------|| 
A--4-5-4-2-4-5-4-2-4-5-4-2-4-5-x-4-5-4-2-4-5-4-2-4-5-4-2-4-5-7----||
D--4-5-4-2-4-5-4-2-4-5-4-2-4-5---4-5-4-2-4-5-4-2-4-5-4-2-4-5-7----||

chorus- heavy distortion   My Life is...   4 times
E------x---|		|--------------------||
B------0---|		|--------------------||
G------0---|4x and	|--3--3-2--2---------||  
D--4-4-0---|then play 	|--3--3-2--2---------|| 
A--4-4-x---|this==>	|--1--1-0--0-5/7\5---||
D--4-4-----|		|------------5/7\5---||

bridge pt 1-bass plays this first-heavy distortion
E------------------------------||
B------------------------------||
G------------------------------||
D------------------------------||
A--4--2-4--2-4--2-4--0-7/8-2---||
D--4--2-4--2-4--2-4--0-7/8-2---||

bridge pt 2-heavy distortion
E--------------------------------||
B--------------------------------||
G--------------------------------||
D--------------------------------||
A--4/5-00-4--0-4--0-4/5--7/8-2---||
D--4/5-00-4--0-4--0-4/5--7/8-2---||

riff before chorus-heavy distortion
E----------------||
B----------------||
G----------------||
D--3-3-3-3-3-3---||
A--3-3-3-3-3-3---||
D--3-3-3-3-3-3---||
   . . . . . .
chorus- heavy distortion   My Life is...
E------x---|		|--------------------||
B------0---|		|--------------------||
G------0---|4x and	|--3--3-2--2---------||  
D--4-4-0---|then play 	|--3--3-2--2---------|| 
A--4-4-x---|this==>	|--1--1-0--0-5/7\5---||
D--4-4-----|		|------------5/7\5---||

END OF SONG HOPE YOU ENJOYED

Comments