Deftones - Digital Bath Chords & Tabs

 

Digital Bath Chords & Tabs

Deftones Chords & Tabs

Version: 4 Type: Tab 0 ratings
1 star 2 stars 3 stars 4 stars 5 stars
comments

Digital Bath Tab

----------------------------------------------------------------------------
			     DIGITAL BATH - Deftones
----------------------------------------------------------------------------
Tabbed by: Kyle MacDonald
Email: kylehnat@hotmail.com

This is not 100% as it sounds on the album, but it's pretty close, and it sounds really good.
I've kind of showed the rythym; listen to the song for the exact rythym and tempo.

Tuning: (CGCFAD)
/ = slide
^ = bend


D|--------------------------------|
A|--------------------------------|
F|--------------------------------|
C|7--77-7--7----------------------|  X4
G|4--40-4--0----------------------|
C|4--40-4--0----------------------|

D|--------------------------------|
A|--------------------------------|
F|11--11-14---17-16---------------|
C|--------------------------------|  X2
G|--------------------------------|
C|--------------------------------|

D|--------------------------------|
A|--------------------------------|
F|--------------------------------|
C|7--77-7--7----------------------|  X2
G|4--40-4--0----------------------|
C|4--40-4--0----------------------|

D|--------------------------------|
A|--------------------------------|
F|--------------------------------|
C|---4^4--2--0------------==------|  X2
G|--------------------------------|
C|2-------------------------------|

D|--------------------------------|
A|--------------------------------|
F|--------------------------------|
C|777777777777--------------------|  X4
G|444444444440--------------------|
C|444444444440--------------------|

D|--------------------------------|
A|--------------------------------|
F|--------------------------------|
C|7--77-7--7----------------------|  X2
G|4--40-4--0----------------------|
C|4--40-4--0----------------------|

D|--------------------------------|
A|--------------------------------|
F|11--11-14---17-16---------------|
C|--------------------------------|  X2
G|--------------------------------|
C|--------------------------------|

D|--------------------------------|
A|--------------------------------|
F|--------------------------------|
C|7--77-7--7----------------------|  X2
G|4--40-4--0----------------------|
C|4--40-4--0----------------------|
[ Tab from: http://www.guitartabs.cc/tabs/d/deftones/digital_bath_tab_ver_4.html ]
D|--------------------------------|
A|--------------------------------|
F|--------------------------------|
C|---4^4--2--0-----==-------------|  X2
G|--------------------------------|
C|2-------------------------------|

D|--------------------------------|
A|--------------------------------|
F|--------------------------------|
C|777777777777--------------------|  X4
G|444444444440--------------------|
C|444444444440--------------------|

D|--------------------------------|
A|--------------------------------|
F|--------------------------------|
C|2222222222-4/5/4-2-0------------|  X2
G|2222222222-4/5/4-2-0------------|
C|2222222222-4/5/4-2-0------------|

D|--------------------------------|
A|--------------------------------|
F|--------------------------------|
C|777777777777--------------------|  X4
G|444444444440--------------------|
C|444444444440--------------------|

D|--------------------------------|
A|--------------------------------|
F|--------------------------------|
C|7--77-7--7----------------------|  X4 (slow)
G|4--40-4--0----------------------|
C|4--40-4--0----------------------|

D|--------------------------------|
A|--------------------------------|
F|--------------------------------|
C|2222222222-4/5/4-2-0------------|  X2
G|2222222222-4/5/4-2-0------------|
C|2222222222-4/5/4-2-0------------|

D|--------------------------------|
A|--------------------------------|
F|--------------------------------|
C|777777777777--------------------|  X4
G|444444444440--------------------|
C|444444444440--------------------|

D|--------------------------------|
A|--------------------------------|
F|11--11/14-14-17-16--------------|
C|X---X-/X--X- X--X---------------|  X2
G|9---9-/12-12-15-14--------------|
C|--------------------------------|

D|--------------------------------|
A|--------------------------------|
F|--------------------------------|
C|777777777777--------------------|  X4
G|444444444440--------------------|
C|444444444440--------------------|

D|--------------------------------|
A|--------------------------------|
F|--------------------------------|
C|2222222222-4/5/4-2-0------------|  X2
G|2222222222-4/5/4-2-0------------|
C|2222222222-4/5/4-2-0------------|

D|--------------------------------|
A|--------------------------------|
F|--------------------------------|
C|777777777777--------------------|  X4
G|444444444440--------------------|
C|444444444440--------------------|

End with:
D|--------------------------------|
A|--------------------------------|
F|--------------------------------|
C|0-------------------------------|
G|0-------------------------------|
C|0-------------------------------|
Comments