Deftones - Digital Bath Chords & Tabs

 

Digital Bath Chords & Tabs

Deftones Chords & Tabs

Version: 3 Type: Tab 0 ratings
1 star 2 stars 3 stars 4 stars 5 stars
comments

Digital Bath Tab

   
-------------------------------------------------------------------------------
			     digital bath - deftones
-------------------------------------------------------------------------------

Tabbed by:nick buchwald
Email:nckyhim462@yahoo.com

Tuning:drop D then full step down i just play it in drop D - CGCFAD or DADGBE.
my second tab



play through verses and chorus
e|---------------------------------------------------------------------------|
B|---------------------------------------------------------------------------|
G|------------------6--------------------------------------------------------|
D|--7---7---7---7---7--------------------------------------------------------|
A|--4---0---4---0---4--------------------------------------------------------|
D|--4---0---4---0---4--------------------------------------------------------|

[ Tab from: http://www.guitartabs.cc/tabs/d/deftones/digital_bath_tab_ver_3.html ]
mid verse
e|---------------------------------------------------------------------------|
B|---------------------------------------------------------------------------|
G|--9-9-9---12-12---15---14--------------------------------------------------|
D|--x-x-x---x--x----x----x---------------------------------------------------|
A|--7-7-7---10-10---13---12--------------------------------------------------|
D|---------------------------------------------------------------------------|
 

end of verse
e|---------------------------------------------------------------------------|
B|---------------------------------------------------------------------------|
G|---------------------------------------------------------------------------|
D|----4--4b-4-2-0------------------------------------------------------------|
A|----4----------------------------------------------------------------------|
D|--2------------------------------------------------------------------------|


| b  bend
| x  Mute note

===============================================================================
Comments