Deftones - Digital Bath Chords & Tabs

 

Digital Bath Chords & Tabs

Deftones Chords & Tabs

Version: 2 Type: Tab 0 ratings
1 star 2 stars 3 stars 4 stars 5 stars
comments

Digital Bath Tab

This is the 100% official tabs from the official white pony tabs book!

this is what they play during the verses

figure 1
d--------------------------------------------------
a--------2-----------------------------------------
f--2-----2--2-----2--------------------------------
c--4-----4--0-----4--------------------------------
g--4-----4--0-----4--------------------------------
c--4--------0-----4--------------------------------
[ Tab from: http://www.guitartabs.cc/tabs/d/deftones/digital_bath_tab_ver_2.html ]
then it cuts into
figure 2
d---------------------------------------------
a---------------------------------------------
f----11---11-11---11---14---14-/--17---16-----
c---------------------------------------------
g----9----9--9----9----12---12-/--15---14-----
c-0--0-------0----0----0----0-----0----0------

then it goes back to figure 1 for a bit
then it does this

figure 3
d------------------------------------------------------
a-----(bend up 1/2 step)-------------------------------
f------------------------------------------------------
c---------4/\2---------4/\2----------------------------
g-----2--------2---------------------------------------
c--4--2-----------2--2---------------------------------

chorus is the same, except with distortion.

those are the important riffs.

anyway...this is basically summarizing the official tabs.
Comments