Deftones - Digital Bath Chords & Tabs

 

Digital Bath Chords & Tabs

Deftones Chords & Tabs

Version: 1 Type: Tab 0 ratings
1 star 2 stars 3 stars 4 stars 5 stars
comments

Digital Bath Tab

   
ok this is my first tab ever ok bear with me i am a good guitar player 
granted but just yell at me later

Tuning c,g,c,f,a,d
Just listen to the song for the right timeing

1st riff
d-----------------------------
a-----------------------------
f-----------------------------
c--7--------7-7------7-----7--
g--4--------4-0------0-----4--
C--4--------4-0------0-----4--It plays this then switches into
[ Tab from: http://www.guitartabs.cc/tabs/d/deftones/digital_bath_tab.html ]
2nd riff
d-----------------------------
a-----------------------------
f-----------------------------
c-----------------------------
g-9--9--12-----15/14----------
C-----------------------------Then open and back into the 1st riff

3rd riff
d-------------------------------------
a-------------------------------------           
f-------------------------------------
c---------4^4---2--0---------4^4---2--0                  
g-------------------------------------
c--2--2---------------2--2------------ Sometimes it plays the whole chord 
                                       such as c-2-
                                               g-2-
                                               C-2- then the bend when 
                                                it gets heavy 

Well thats about it i hope i did aight for my first one see you next time 
PEACE!!!! ToX
Comments