Deftones - Digital Bath Chords & Tabs

 

Digital Bath Chords & Tabs

Deftones Chords & Tabs

Version: 2 Type: Bass Tab 0 ratings
1 star 2 stars 3 stars 4 stars 5 stars
comments

Digital Bath Bass Tab

Band: Deftones
 Song: Digital Bath
 Album: The White Pony
 Submited by: Rob 
 Email me at: POPSUX2005@mail.nu

 Riff 1
 E --------------------    
 A ----3----3----3----3
 D --------------------   Hold each note for 4 beats
 G --------------------

 Riff 2
 E ----------------------
 A 3----3----3----3----3- Hold for 1 beat
 D -2----2----2----2----2 Hold for 3 beats
 G ----------------------

 Riff 5
 E -------
 A 3----3- Hold for 1 beat
 D -5----5 Hold for 3 beats
 G -------



[ Tab from: http://www.guitartabs.cc/tabs/d/deftones/digital_bath_btab_ver_2.html ]
 Riff 4
 E ----------------------
 A 3----3----3----3----3- Hold for 1 beat
 D -0----0----0----0----0 Hold for 3 beats
 G ----------------------

 Riff 4
 E --------------
 A 3------------- Hold 8 beats
 D --------------
 G --------------

 Listen for the structure. its so easy i wont bother to put it on. PS this is a tab correction on my old tab. i deciced to re-do it cause i was missing a riff and the letter "G" was on the bottom

 There might be more to the structure but the tab is right
Comments