Deftones - Deftones Chords & Tabs

 

Deftones Chords & Tabs

Deftones Chords & Tabs

Version: 2 Type: Tab 0 ratings
1 star 2 stars 3 stars 4 stars 5 stars
comments

Deftones Tab

   
-------------------------------------------------------------------------------
			     Hexagram - Deftones
-------------------------------------------------------------------------------

Tabbed by: Cross
6/10/03
Email:xcrossx1@yahoo.com
I finally decided to release my tabs to the public (check the bottom for the 
reason why I didn't in the first place).

Tuning:Here is Stephen's REAL tuning G#,C#,F#,B,E,G#,C#. Thats 4 1/2 steps down
from regular tuning and 2 1/2 steps down for 7 string. I play these on a regular
Guitar so I don't have the extra C# but it still sounds 99-100% correct.

Intro

C#|-0-0-0-0-0-0-0-0-----------0-0-0-0-0-0-0-0-0-0-0-0-0-0-0-0----------------|
G#|-0-0-0-0-0-0-0-0-----------0-0-0-0-0-0-0-0-0-0-0-0-0-0-0-0----------------|
E |-x-x-x-x-x-x-x-x-----------x-x-x-x-x-x-x-x-x-x-x-x-x-x-x-x----------------|
B |-2-2-2-2-2-2-2-2-----------6-6-6-6-6-6-6-6-6-6-6-6-6-6-6-6----------------|
F#|-2-2-2-2-2-2-2-2--4-4-4-4--6-6-6-6-6-6-6-6-6-6-6-6-6-6-6-6----------------|
C#|-0-0-0-0-0-0-0-0--4-4-4-4--4-4-4-4-4-4-4-4-4-4-4-4-4-4-4-4----------------|
G#|------------------2-2-2-2-------------------------------------------------|

C#|-0-0-0-0-0-0-0-0-----------0-0-0-0-0-0-0-0-0-0-0-0-0-0-0-0----------------|
G#|-0-0-0-0-0-0-0-0-----------0-0-0-0-0-0-0-0-0-0-0-0-0-0-0-0----------------|
E |-x-x-x-x-x-x-x-x-----------x-x-x-x-x-x-x-x-x-x-x-x-x-x-x-x----------------|
B |-2-2-2-2-2-2-2-2-----------6-6-6-6-6-6-6-6-6-6-6-6-6-6-6-6----------------|
F#|-2-2-2-2-2-2-2-2--4-4-4-4--6-6-6-6-0-0-0-0-0-0-0-0-0-0-0-0----------------|
C#|-0-0-0-0-0-0-0-0--4-4-4-4--4-4-4-4-0-0-0-0-0-0-0-0-0-0-0-0----------------|
G#|------------------2-2-2-2----------5-5-5-5-5-5-5-5-5-5-5-5----------------|


Verse 

C#|-0-0-0-0-0-0-0-0-----------0-0-0-0-0-0-0-0-0-0-0-0-0-0-0-0----------------|
G#|-0-0-0-0-0-0-0-0-----------0-0-0-0-0-0-0-0-0-0-0-0-0-0-0-0----------------|
E |-x-x-x-x-x-x-x-x-----------x-x-x-x-x-x-x-x-x-x-x-x-x-x-x-x----------------|
B |-2-2-2-2-2-2-2-2-----------6-6-6-6-6-6-6-6-6-6-6-6-6-6-6-6----------------|
F#|-2-2-2-2-2-2-2-2--4-4-4-4--6-6-6-6-6-6-6-6-6-6-6-6-6-6-6-6----------------|
C#|-0-0-0-0-0-0-0-0--4-4-4-4--4-4-4-4-4-4-4-4-4-4-4-4-4-4-4-4----------------|
G#|------------------2-2-2-2-------------------------------------------------|

                   before the Chorus Keep playing this part 
                                      |
C#|-0-0-0-0-0-0-0-0-----------0-0-0-0-0-0-0-0-0-0-0-0-0-0-0-0----------------|
G#|-0-0-0-0-0-0-0-0-----------0-0-0-0-0-0-0-0-0-0-0-0-0-0-0-0----------------|
E |-x-x-x-x-x-x-x-x-----------x-x-x-x-x-x-x-x-x-x-x-x-x-x-x-x----------------|
B |-2-2-2-2-2-2-2-2-----------6-6-6-6-6-6-6-6-6-6-6-6-6-6-6-6----------------|
F#|-2-2-2-2-2-2-2-2--4-4-4-4--6-6-6-6-0-0-0-0-0-0-0-0-0-0-0-0----------------|
C#|-0-0-0-0-0-0-0-0--4-4-4-4--4-4-4-4-0-0-0-0-0-0-0-0-0-0-0-0----------------|
G#|------------------2-2-2-2----------5-5-5-5-5-5-5-5-5-5-5-5----------------|

Chorus 1
                 
C#|--------------------------------------------------------------------------|
G#|--------------------------------------------------------------------------|
E |--------------------------------------------------------------------------|
B |--------------------------------------------------------------------------|
F#|-5---4--5-4----4---4-4---4------------------------------------------------|
C#|-5---4--5-4----4---4-4---4------------------------------------------------|
G#|-3-0-2--3-2-0--2-0-2-2-0-2------------------------------------------------|

C#|--------------------------------------------------------------------------|
G#|--------------------------------------------------------------------------|
E |--------------------------------------------------------------------------|
B |--------------------------------------------------------------------------|
F#|10-10--9-9--5-5--7-7------------------------------------------------------|
C#|10-10--9-9--5-5--7-7------------------------------------------------------|
G#|-8--8--7-7--3-3--5-5------------------------------------------------------|
                  
                  P.M......... on last two times.
C#|-----------------------------------0--------------------------------------|
G#|-----------------------------------0--------------------------------------|
E |-----------------------------------x--------------------------------------|
B |-------------------------------2-2-2--------------------------------------|
F#|-5---4--5-4----4---4-4---4-----2-2-2--------------------------------------|
C#|-5---4--5-4----4---4-4---4-----0-0-4--------------------------------------|
G#|-3-0-2--3-2-0--2-0-2-2-0-2------------------------------------------------|

Chorus 2

C#|--------------------------------------------------------------------------|
G#|--------------------------------------------------------------------------|
E |--------------------------------------------------------------------------|
B |--------------------------------------------------------------------------|
F#|10-10--9-9--5-5--7-7------------------------------------------------------|
C#|10-10--9-9--5-5--7-7------------------------------------------------------|
G#|-8--8--7-7--3-3--5-5------------------------------------------------------|
  
                  P.M......... on last two times.
C#|--------------------------------------------------------------------------|
G#|--------------------------------------------------------------------------|
E |--------------------------------------------------------------------------|
B |--------------------------------------------------------------------------|
F#|-5---4--5-4----4---4-4---4------------------10-10--9-9--5-5--7-7----------|
C#|-5---4--5-4----4---4-4---4--- x4 then play--10-10--9-9--5-5--7-7----------|
G#|-3-0-2--3-2-0--2-0-2-2-0-2-------------------8--8--7-7--3-3--5-5----------|

C#|--------------------------------------------------------------------------|
G#|--------------------------------------------------------------------------|
E |--------------------------------------------------------------------------|
B |--------------------------------------------------------------------------|
F#|-5---4--5-4----4---4-4---4------------------10-10--9-9--5-5--12-----------|
C#|-5---4--5-4----4---4-4---4--- then play-----10-10--9-9--5-5--12-----------|
G#|-3-0-2--3-2-0--2-0-2-2-0-2-------------------8--8--7-7--3-3--10-----------|

C#|--------------------------------------------------------------------------|
G#|--------------------------------------------------------------------------|
E |--------------------------------------------------------------------------|
B |--------------------------------------------------------------------------|
F#|-5---4--5-4----4---4-4---4------------------10-10--9-9--5-5--12-----------|
C#|-5---4--5-4----4---4-4---4--- then play-----10-10--9-9--5-5--12-----------|
G#|-3-0-2--3-2-0--2-0-2-2-0-2-------------------8--8--7-7--3-3--10-----------|

C#|--------------------------------------------------------------------------|
G#|--------------------------------------------------------------------------|
E |--------------------------------------------------------------------------|
B |--------------------------------------------------------------------------|
F#|-5---4--5-4----4---4-4---4------------------10-10--9-9--5-5--12-----------|
C#|-5---4--5-4----4---4-4---4--- then play-----10-10--9-9--5-5--12-----------|
G#|-3-0-2--3-2-0--2-0-2-2-0-2-------------------8--8--7-7--3-3--10-----------|

                  P.M......... on last two times.
C#|-----------------------------------0--------------------------------------|
G#|-----------------------------------0--------------------------------------|
E |-----------------------------------x--------------------------------------|
B |-------------------------------2-2-2--------------------------------------|
F#|-5---4--5-4----4---4-4---4-----2-2-2--------------------------------------|
C#|-5---4--5-4----4---4-4---4-----0-0-4--------------------------------------|
G#|-3-0-2--3-2-0--2-0-2-2-0-2------------------------------------------------|

Outro
C#|-----0--------------------------------------------------------------------|
G#|-----0--------------------------------------------------------------------|
E |-----x--------------------------------------------------------------------|
B |-2-2-2--------------------------------------------------------------------|
F#|-2-2-2--------------------------------------------------------------------|
C#|-0-0-4--------------------------------------------------------------------|
G#|--------------------------------------------------------------------------|


Song Structure:

Intro
Verse 
Chorus 1
Verse
Chorus 2
Verse
Intro
Verse x2
Outro

P.S. I would like to send out a BIG Fuck You to all you faggots that stole 
credit for my old tabs. 
Fuck You: 
Cenif (this guy deserves a MEGA FUCK YOU) cenif@hotmail.com 
Miguel Garzón knick_knack_666@hotmail.com
SAM ROWLANDS dead_evil4@hotmail.com  You NUTT BITING FAGGOTS
There were more but I guess reporting they're asses got them taken off before
I could get there info, Thieving biatchez.

| /  slide up
| \  slide down
| h  hammer-on
| p  pull-off
| ~  vibrato
| +  harmonic
| x  Mute note

===============================================================================

-------------------------------------------------------------------------------
			     Needles and Pins - Deftones
-------------------------------------------------------------------------------

Tabbed by: Cross
6/15/03
Email:xcrossx1@yahoo.com

Note: This song is really played on a 5-String Bass if I could get my hands on
one I would tab that out but I can't so here you go.

Tuning:Here is Stephen's REAL tuning G#,C#,F#,B,E,G#,C#. Thats 4 1/2 steps down
from regular tuning and 2 1/2 steps down for 7 string. I play these on a regular
Guitar so I don't have the extra C# but it still sounds 99-100% correct.


Intro/verse 
P.M the C#
C#|--------------------------------------------------------------------------|
G#|--------------------------------------------------------------------------|
E |--------------------------------------------------------------------------|
B |---6--6--6--6--6--6--6--6--6--6--6--6--6--6--6--6--6--6--6--6--6----------|
F#|----4--4--4--4--4--4--4--4--4--4--4--4--4--4--4--4--4--4--4--4--4---------|
C#|-5---5--5--5--5--5--5--5--5--5--5--5--5--5--5--5--5--5--5--5--5-----------|
G#|--------------------------------------------------------------------------|

C#|--------------------------------------------------------------------------|
G#|--------------------------------------------------------------------------|
E |--------------------------------------------------------------------------|
B |---6--6--6--6--6--6--6--6--6--6--6--6--6--6--6--6--6--6--6--6--6----------|
F#|----4--4--4--4--4--4--4--4--4--4--4--4--4--4--4--4--4--4--4--4--4---------|
C#|-5---5--5--5--5--5--5--5--5--5--5--5--5--5--5--5--5--5--5--5--5-----------|
G#|--------------------------------------------------------------------------|

Chorus

C#|--------------------------------------------------------------------------|
G#|--------------------------------------------------------------------------|
E |--------------------------------------------------------------------------|
B |-6-6-6-6--2-2-2-2--7-7--7-7--7--------------------------------------------|
F#|-6-6-6-6--2-2-2-2--7-7--7-7--7--------------------------------------------|
C#|-4-4-4-4--0-0-0-0--5-5--5-5--5--------------------------------------------|
G#|--------------------------------------------------------------------------|

Breakdown
1:36

C#|--------------------------------------------------------------------------|
G#|--------------------------------------------------------------------------|
E |----6---6---6--6-6---6-6--------6---6---6--6-6---6-6----------------------|
B |----6---6---6--6-6---6-6-7------6---6---6--6-6---6-6-7--------------------|x1
F#|-0--4-0-4-0-4--4-4-0-4-4-7--0-0-4-0-4-0-4--4-4-0-4-4-7--------------------|
C#|-5----5---5--------5-----5--5-5---5---5--------5-----5--------------------|
G#|--------------------------------------------------------------------------|

then
C#|--------------------------------------------------------------------------|
G#|--------------------------------------------------------------------------|
E |-----6---6---6--6-6---6-6-------------------------------------------------|
B |-----6---6---6--6-6---6-6-7-----------------------------------------------|x6
F#|-0-0-4-0-4-0-4--4-4-0-4-4-7-----------------------------------------------|
C#|-5-5---5---5--------5-----5-----------------------------------------------|
G#|--------------------------------------------------------------------------|

Outro/verse 3

P.M the C#
C#|--------------------------------------------------------------------------|
G#|--------------------------------------------------------------------------|
E |--------------------------------------------------------------------------|
B |---6--6--6--6--6--6--6--6--6--6--6--6--6--6--6--6--6--6--6--6--6----------|
F#|----4--4--4--4--4--4--4--4--4--4--4--4--4--4--4--4--4--4--4--4--4---------|
C#|-5---5--5--5--5--5--5--5--5--5--5--5--5--5--5--5--5--5--5--5--5-----------|
G#|--------------------------------------------------------------------------|

P.M the C#
C#|--------------------------------------------------------------------------|
G#|--------------------------------------------------------------------------|
E |--------------------------------------------------------------------------|
B |-------6--6--6--6--6--6--6--6--6--6--6--6--6--6--6--6--6--6--6--6--6--6---|
F#|--------4--4--4--4--4--4--4--4--4--4--4--4--4--4--4--4--4--4--4--4--4--4--|
C#|-5--5-5--5--5--5--5--5--5--5--5--5--5--5--5--5--5--5--5--5--5--5--5--5----|
G#|--------------------------------------------------------------------------|
                                          
P.M the C#                              the song fades out on the last ones
C#|--------------------------------------------------------------------------|
G#|--------------------------------------------------------------------------|
E |--------------------------------------------------------------------------|
B |-------6--6--6--6--6--6--6--6--6--6--6--6--6--6--6--6--6--6--6--6--6--6---|
F#|--------4--4--4--4--4--4--4--4--4--4--4--4--4--4--4--4--4--4--4--4--4--4--|
C#|-5--5-5--5--5--5--5--5--5--5--5--5--5--5--5--5--5--5--5--5--5--5--5--5----|
G#|--------------------------------------------------------------------------|
song Structure:
Intro/verse x1
Chorus x4
Intro/verse x1
Breakdown 
Chorus x8
outro/verse 3 x1

| /  slide up
| \  slide down
| h  hammer-on
| p  pull-off
| ~  vibrato
| +  harmonic
| x  Mute note

===============================================================================

-------------------------------------------------------------------------------
		     Good Morning Beautiful - Deftones
-------------------------------------------------------------------------------

Tabbed by:Cross
7/16/03
Email:xcrossx1@yahoo.com
I finally decided to release my tabs to the public (check the bottom for the 
reason why I didn't in the first place).

Tuning: Here is Stephen's REAL tuning G#,C#,F#,B,E,G#,C#. Thats 4 1/2 steps down
from regular tuning and 2 1/2 steps down for 7 string. I play these on a regular
Guitar so I don't have the extra C# but it still sounds 99-100% correct.

Intro/Chorus Ending
C#|-0--0--0--0----|
G#|-0--0--0--0----|
E |-4--4--4--4----|
B |-2--2--2--2----|
F#|-0--0--0--0----|
C#|-0--0--0--0----|
G#|---------------|

Verse
C#|------------------------------------0-0-0-0-0-0-0-0-0-0-0-----------------|
G#|------------------------------------0-0-0-0-0-0-0-0-0-0-0-----------------|
E |-6-6-6-6-6-6-6-6-6-6-6-6-6-6-6-6----4-4-4-4-4-4-4-4-4-4-4-----------------|
B |-4-4-4-4-4-4-4-4-4-4-4-4-4-4-4-4----2-2-2-2-2-2-2-2-2-2-2-----------------|
F#|------------------------------------0-0-0-0-0-0-0-0-0-0-0-----------------|
C#|------------------------------------0-0-0-0-0-0-0-0-0-0-0-----------------|
G#|--------------------------------------------------------------------------|

Verse Ending
C#|-0-0-0-0-0-0-0-0-0-0-0-0-0-0-0-0-0-0-0-0-0-0-0-0-0-0-0-0-0-0-0-0----------|
G#|-0-0-0-0-0-0-0-0-0-0-0-0-0-0-0-0-0-0-0-0-0-0-0-0-0-0-0-0-0-0-0-0----------|
E |-4-4-4-4-4-4-4-4-4-4-4-4-4-4-4-4-4-4-4-4-4-4-4-4-4-4-4-4-4-4-4-4----------|
B |-2-2-2-2-2-2-2-2-2-2-2-2-2-2-2-2-2-2-2-2-2-2-2-2-2-2-2-2-2-2-2-2----------|  
F#|-0-0-0-0-0-0-0-0-0-0-0-0-0-0-0-0-0-0-0-0-0-0-0-0-0-0-0-0-0-0-0-0----------|
C#|-0-0-0-0-0-0-0-0-0-0-0-0-0-0-0-0-0-0-0-0-0-0-0-0-0-0-0-0-0-0-0-0----------|
G#|--------------------------------------------------------------------------|

Chorus   Sometimes he only plays this part once
                       | 
C#|--------------------0-0---------------------------------------------------|
G#|--------------------0-0---------------------------------------------------|
E |--------------------4-4---------------------------------------------------|
B |--------------------2-2---------------------------------------------------|
F#|-3-3-3-x-3--3-3-3-x-0-0---------------------------------------------------|
C#|-3-3-3-x-3--3-3-3-x-0-0---------------------------------------------------|
G#|-1-1-1-x-1--1-1-1-x-------------------------------------------------------|

Intro/Chorus Ending
C#|-0--0--0--0----|
G#|-0--0--0--0----|
E |-4--4--4--4----|
B |-2--2--2--2----|
F#|-0--0--0--0----|
C#|-0--0--0--0----|
G#|---------------|


Breakdown

C#|-0-0-0-0-0-0-0-0-0-0-0-0-0-0-0-0-0-0-0-0-0-0-0-0-0-0-0-0-0-0-0-0----------|
G#|-0-0-0-0-0-0-0-0-0-0-0-0-0-0-0-0-0-0-0-0-0-0-0-0-0-0-0-0-0-0-0-0----------|
E |-x-x-x-x-x-x-x-x-x-x-x-x-x-x-x-x-x-x-x-x-x-x-x-x-x-x-x-x-x-x-x-x----------|
B |-5-5-5-5-5-5-5-5-5-5-5-5-5-5-5-5-9-9-9-9-9-9-9-9-9-9-9-9-9-9-9-9----------|
F#|-5-5-5-5-5-5-5-5-5-5-5-5-5-5-5-5-9-9-9-9-9-9-9-9-9-9-9-9-9-9-9-9----------|
C#|-3-3-3-3-3-3-3-3-3-3-3-3-3-3-3-3-7-7-7-7-7-7-7-7-7-7-7-7-7-7-7-7----------|
G#|--------------------------------------------------------------------------|
Breakdown ending
C#|-0-0-0-0-0-0-0-0-0-0-0-0-0-0-0-0-0-0-0-0-0-0-0-0-0-0-0-0-0-0-0-0----------|
G#|-0-0-0-0-0-0-0-0-0-0-0-0-0-0-0-0-0-0-0-0-0-0-0-0-0-0-0-0-0-0-0-0----------|
E |-x-x-x-x-x-x-x-x-x-x-x-x-x-x-x-x-x-x-x-x-x-x-x-x-x-x-x-x-x-x-x-x----------|
B |-7-7-7-7-7-7-7-7-7-7-7-7-7-7-7-7-7-7-7-7-7-7-7-7-7-7-7-7-7-7-7-7----------|
F#|-7-7-7-7-7-7-7-7-7-7-7-7-7-7-7-7-7-7-7-7-7-7-7-7-7-7-7-7-7-7-7-7----------|
C#|-5-5-5-5-5-5-5-5-5-5-5-5-5-5-5-5-5-5-5-5-5-5-5-5-5-5-5-5-5-5-5-5----------|
G#|--------------------------------------------------------------------------|

Song Structure:
Intro/Chorus Ending
Verse x4
Verse Ending x1
Chorus x8
Intro/Chorus Ending
Verse x4
verse Ending
Chorus x8
Intro/Chorus Ending x1
Breakdown x4
Breakdown ending x1
Chorus x15
Intro/Chorus Ending x1

P.S. I would like to send out a BIG Fuck You to all you faggots that stole 
credit for my old tabs. 
Fuck You: 
Cenif (this guy deserves a MEGA FUCK YOU) cenif@hotmail.com 
Miguel Garzón knick_knack_666@hotmail.com
SAM ROWLANDS dead_evil4@hotmail.com  You NUTT BITING FAGGOTS
There were more but I guess reporting they're asses got them taken off before
I could get there info, Thieving biatchez.

| /  slide up
| \  slide down
| h  hammer-on
| p  pull-off
| ~  vibrato
| +  harmonic
| x  Mute note

===============================================================================

-------------------------------------------------------------------------------
			     Deathblow - Deftones
-------------------------------------------------------------------------------

Tabbed by: Cross
7/16/03
Email:xcrossx1@yahoo.com
I finally decided to release my tabs to the public (check the bottom for the 
reason why I didn't in the first place).

Tuning: Here is Stephen's REAL tuning G#,C#,F#,B,E,G#,C#. Thats 4 steps down
from regular tuning and 2 steps down for 7 string. I play these on a regular
Guitar so I don't have the extra C# but it still sounds 99-100% correct.


Intro

C#|--------------------------------------------------------------------------|
G#|--------------------------------------------------------------------------|
E |--------------------------------------------0-----------------------------|
B |-0-----0--0----0----------------------------------------------------------|
F#|----2--------2----2p0-------2-----------2---------------------------------|x2
C#|----------------------0-0-0---0-0-0-0-0---0-------------------------------|
G#|--------------------------------------------------------------------------|

Verse
*
C#|--------------------------------------------------------------------------|
G#|--------------------------------------------------------------------------|
E |--------------------------------------------0-----------------------------|
B |-0-----0--0----0----------------------------------------------------------|
F#|----2--------2----2p0-------2-----------2---------------------------------|
C#|----------------------0-0-0---0-0-0-0-0---0-------------------------------|
G#|--------------------------------------------------------------------------|

**
 P.M        ............................................               
C#|--------------------------------------------------------------------------|
G#|--------------------------------------------------------------------------|
E |--------------------------------------------------------------------------|
B |-0-----0--0----0----------------------------------------------------------|
F#|----2--------2----2p0-----------------------------------------------------|
C#|----------------------2-2-2-2-2-2-2-2-2-2-2-2-2-2-2-2---------------------|
G#|--------------------------------------------------------------------------|

Pre-Chorus

   Fuck with this part I am too lazy to tab every damn stroke.
C#|--------------------------------------------------------------------------|
G#|---------0----------------------------------------------------------------|
E |----------0---------------------------------------------------------------|
B |-9--9-9-9-----------------------------------------------------------------|
F#|--------------------------------------------------------------------------|
C#|-7--7-7-7-----------------------------------------------------------------|
G#|--------------------------------------------------------------------------|
Chorus
*
C#|-0-0-0-0-0-0-0-0-0-0-0-0-0-0-0-0-0-0-0-0-0-0-0-0-0-0-0-0-0-0-0-0-0-0------|
G#|-0-0-0-0-0-0-0-0-0-0-0-0-0-0-0-0-0-0-0-0-0-0-0-0-0-0-0-0-0-0-0-0-0-0------|
E |--------------------------------------------------------------------------|
B |-2-2-2-2-2-2-2-2-2-2-2-2-2-2-2-2-2-2-2-2-2-2-2-2-2-2-2-2-2-2-2-2-2-2---0--|
F#|-2-2-2-2-2-2-2-2-2-2-2-2-2-2-2-2-2-2-2-2-2-2-2-2-2-2-2-2-2-2-2-2-2-2---2--|
C#|-0-0-0-0-0-0-0-0-0-0-0-0-0-0-0-0-0-0-0-0-0-0-0-0-0-0-0-0-0-0-0-0-0-0---2--|
G#|-----------------------------------------------------------------------0--|

**
C#|-0-0-0-0-0-0-0-0-0-0-0-0-0-0-0-0-0-0-0-0-0-0-0-0-0-0-0-0-0-0-0-0-0-0------|
G#|-0-0-0-0-0-0-0-0-0-0-0-0-0-0-0-0-0-0-0-0-0-0-0-0-0-0-0-0-0-0-0-0-0-0------|
E |---------4p2-2-2-4-2------------------------------------------------------|
B |-2-2-2-2-2-2-2-2-2-2-2-2-2-2-2-2-2-2-2-2-2-2-2-2-2-2-2-2-2-2-2-2-2-2------|
F#|-2-2-2-2-2-2-2-2-2-2-2-2-2-2-2-2-2-2-2-2-2-2-2-2-2-2-2-2-2-2-2-2-2-2------|
C#|-0-0-0-0-0-0-0-0-0-0-0-0-0-0-0-0-0-0-0-0-0-0-0-0-0-0-0-0-0-0-0-0-0-0------|
G#|--------------------------------------------------------------------------|

***
C#|--------------------------------------------------------------------------|
G#|--------------------------------------------------------------------------|
E |--------------------------------------------------------------------------|
B |-5-5-5-5-5-5-5-5-5-5-5-5-5-5-5-5-2-2-2-2-2-2-2-2-2-2-2-2-2-2-2-2---0------|
F#|-5-5-5-5-5-5-5-5-5-5-5-5-5-5-5-5-2-2-2-2-2-2-2-2-2-2-2-2-2-2-2-2---2------|
C#|-3-3-3-3-3-3-3-3-3-3-3-3-3-3-3-3-0-0-0-0-0-0-0-0-0-0-0-0-0-0-0-0---2------|
G#|-------------------------------------------------------------------0------|


Chorus 2 

C#|---------0----------------------0--------------------------0--------------|
G#|---------0----------------------0--------------------------0--------------|
E |--------------------------------------------------------------------------|
B |-9-9-9-9-9-9-9-9-9/11-11-11-11-11-11-11-11-11/12-12-12-12-12-12-12-12-12/-|
F#|--------------------------------------------------------------------------|
C#|-7-7-7-7-7-7-7-7-7/-9--9--9--9--9--9--9--9--9/10-10-10-10-10-10-10-10-10/-|
G#|--------------------------------------------------------------------------|
                            During this part use some open C#'s and G#'s
                             |
C#|--------------------------------------------------------------------------|
G#|--------------------------------------------------------------------------|
E |--------------------------------------------------------------------------|
B |-14-14-14-14/16-16-16-16/17-17-17-17-17-17-17-17-17-17-17-17-17-17-17-17--|
F#|--------------------------------------------------------------------------|
C#|-12-12-12-12/14-14-14-14/15-15-15-15-15-15-15-15-15-15-15-15-15-15-15-15--|
G#|--------------------------------------------------------------------------|
[ Tab from: http://www.guitartabs.cc/tabs/d/deftones/deftones_tab_ver_2.html ]
C#|--------------------------------------------------------------------------|
G#|--------------------------------------------------------------------------|
E |--------------------------------------------------------------------------|
B |-14-14-14-14-14-14-14-14-14-14-14-14-14-14-14-14--------------------------|
F#|--------------------------------------------------------------------------|
C#|-12-12-12-12-12-12-12-12-12-12-12-12-12-12-12-12--------------------------|
G#|--------------------------------------------------------------------------|

Outro: Just play the intro and hit open strings and improvise it till the end.

Song Structure:
Intro
Verse x4
Pre-Chorus x1
Chorus * x1
Chorus ** x1
Verse * x2
Verse */** x1 (its kind of a mix of both)
Verse * x1
Verse */** x2 (its kind of a mix of both)
Pre-Chorus x1
Chorus * x1
Chorus ** x1 (with the ending of Chorus *)
Pre-Chorus x1 
Chorus *** x1
Chorus 2 x1
Verse */** x4 (its kind of a mix of both)
Pre-Chorus x1
Chorus * x1
Chorus ** x1 (with the ending of Chorus *)
Pre-Chorus x1 
Chorus *** x1
Chorus 2 x2
Outro


P.S. I would like to send out a BIG Fuck You to all you faggots that stole 
credit for my old tabs. 
Fuck You: 
Cenif (this guy deserves a MEGA FUCK YOU) cenif@hotmail.com 
Miguel Garzón knick_knack_666@hotmail.com
SAM ROWLANDS dead_evil4@hotmail.com  You NUTT BITING FAGGOTS
There were more but I guess reporting they're asses got them taken off before
I could get there info, Thieving biatchez.

| /  slide up
| \  slide down
| h  hammer-on
| p  pull-off
| ~  vibrato
| +  harmonic
| x  Mute note

===============================================================================

-------------------------------------------------------------------------------
	          When Girls Telephone Boys - Deftones
-------------------------------------------------------------------------------

Tabbed by: Cross
6/05/03
Email:xcrossx1@yahoo.com
I finally decided to release my tabs to the public (check the bottom for the 
reason why I didn't in the first place).

Tuning:Here is Stephen's REAL tuning G#,C#,F#,B,E,G#,C#. Thats 4 1/2 steps down
from regular tuning and 2 1/2 steps down for 7 string. I play these on a regular
Guitar so I don't have the extra C# but it still sounds 99-100% correct.


Verse 
There are no open strings during the verse thats just Frank.
C#|--------------------------------------------------------------------------|
G#|--------------------------------------------------------------------------|
E |--------------------------------------------------------------------------|
B |-8-8-8-8-8-8-8-8-8-8-8-8-8-8-8-8/11-11-11-11-11-11-11-11-11-11-11-11-11-11|
F#|-8-8-8-8-8-8-8-8-8-8-8-8-8-8-8-8/11-11-11-11-11-11-11-11-11-11-11-11-11-11|
C#|-6-6-6-6-6-6-6-6-6-6-6-6-6-6-6-6/-9--9--9--9--9--9--9--9--9--9--9--9--9--9|
G#|--------------------------------------------------------------------------|


C#|--------------------------------------------------------------------------|
G#|--------------------------------------------------------------------------|
E |--------------------------------------------------------------------------|
B |-11-11-12-12-12-12-12-12-12-12-12-12-12-12-12-12-12-12-12-12-12-12-12-12--|
F#|-11-11-12-12-12-12-12-12-12-12-12-12-12-12-12-12-12-12-12-12-12-12-12-12--|
C#|--9--9-10-10-10-10-10-10-10-10-10-10-10-10-10-10-10-10-10-10-10-10-10-10--|
G#|--------------------------------------------------------------------------|

C#|--------------------------------------------------------------------------|
G#|--------------------------------------------------------------------------|
E |--------------------------------------------------------------------------|
B |-12-12-12-12-12-12-12-12-12-12-13-13-13-13-13-13-13-13-13-13-13-13-13-13--|
F#|-12-12-12-12-12-12-12-12-12-12-13-13-13-13-13-13-13-13-13-13-13-13-13-13--|
C#|-10-10-10-10-10-10-10-10-10-10-11-11-11-11-11-11-11-11-11-11-11-11-11-11--|
G#|--------------------------------------------------------------------------|

C#|--------------------------------------------------------------------------|
G#|--------------------------------------------------------------------------|
E |--------------------------------------------------------------------------|
B |-13-13-13-13-13-13-13-13-13-13-13-13-13-13-13-13-13-13--------------------|
F#|-13-13-13-13-13-13-13-13-13-13-13-13-13-13-13-13-13-13--------------------|
C#|-11-11-11-11-11-11-11-11-11-11-11-11-11-11-11-11-11-11--------------------|
G#|--------------------------------------------------------------------------|

Slide into the chorus 16\2

Chorus 
P.M x x x                       x     x
C#|--------------------------------------------------------------------------|
G#|--------------------------------------------------------------------------|
E |--------------------------------------------------------------------------|
B |--------------------------------------------------------------------------|
F#|-4-4-4-4--4--4--4---5\4---4--4--4--4--4-----------------------------------|
C#|-4-4-4-4--4--4--4---5\4---4--4--4--4--4-----------------------------------|
G#|-2-2-2-2--2--2--2---3\2p0-2--2--2--2--2-----------------------------------|

P.M x x x                       x     x
C#|--------------------------------------------------------------------------|
G#|--------------------------------------------------------------------------|
E |--------------------------------------------------------------------------|
B |--------------------------------------------------------------------------|
F#|-4-4-4-4--4--4--4---5\4---4--4--4--4--5-----------------------------------|
C#|-4-4-4-4--4--4--4---5\4---4--4--4--4--5-----------------------------------|
G#|-2-2-2-2--2--2--2---3\2p0-2--2--2--2--3-----------------------------------|

P.M x x x                       x     x
C#|--------------------------------------------------------------------------|
G#|--------------------------------------------------------------------------|
E |--------------------------------------------------------------------------|
B |--------------------------------------------------------------------------|
F#|-4-4-4-4--4--4--4---5\4---4--4--4--4--4-----------------------------------|
C#|-4-4-4-4--4--4--4---5\4---4--4--4--4--4-----------------------------------|
G#|-2-2-2-2--2--2--2---3\2p0-2--2--2--2--2-----------------------------------|



P.M x x x                       x     x  
C#|--------------------------------------------------------------------------|
G#|--------------------------------------------------------------------------|
E |--------------------------------------------------------------------------|
B |--------------------------------------------------------------------------|
F#|-4-4-4-4--4--4--4---5\4---4--4--4--4--5-----------------------------------|
C#|-4-4-4-4--4--4--4---5\4---4--4--4--4--5-----------------------------------|
G#|-2-2-2-2--2--2--2---3\2p0-2--2--2--2--3-----------------------------------|


Breakdown
 
C#|--------------------------------------------------------------------------|
G#|--------------------------------------------------------------------------|
E |--------------------------------------------------------------------------|
B |-17-17-17-17-17-17-17-17-17-17-17-17-17-17-17-17-17-17-17-17-17-17-17-17--|
F#|--------------------------------------------------------------------------|
C#|-15-15-15-15-15-15-15-15-15-15-15-15-15-15-15-15-15-15-15-15-15-15-15-15--|
G#|--------------------------------------------------------------------------|

C#|--------------------------------------------------------------------------|
G#|--------------------------------------------------------------------------|
E |--------------------------------------------------------------------------|
B |-17-17-17-17-17-17-17-17-17\16-16-16-16-16-16-16-16-16-16-16-16-16-16-16--|
F#|--------------------------------------------------------------------------|
C#|-15-15-15-15-15-15-15-15-15\14-14-14-14-14-14-14-14-14-14-14-14-14-14-14--|
G#|--------------------------------------------------------------------------|

C#|--------------------------------------------------------------------------|
G#|--------------------------------------------------------------------------|
E |--------------------------------------------------------------------------|
C#|-16-16-16-16-16-16-16-16-16-16\14-14-14-14\13-13-13-13--------------------|
G#|--------------------------------------------------------------------------|
Eb|-14-14-14-14-14-14-14-14-14-14\12-12-12-12\11-11-11-11--------------------|
G#|--------------------------------------------------------------------------|

C#|--------------------------------------------------------------------------|
G#|--------------------------------------------------------------------------|
E |--------------------------------------------------------------------------|
B |-17-17-17-17-17-17-17-17-17-17-17-17-17-17-17-17-17-17-17-17-17-17-17-17--|
F#|--------------------------------------------------------------------------|
C#|-15-15-15-15-15-15-15-15-15-15-15-15-15-15-15-15-15-15-15-15-15-15-15-15--|
G#|--------------------------------------------------------------------------|

C#|--------------------------------------------------------------------------|
G#|--------------------------------------------------------------------------|
E |--------------------------------------------------------------------------|
B |-17-17-17-17-17-17-17-17-17\16-16-16-16-16-16-16-16-16-16-16-16-16-16-16--|
F#|--------------------------------------------------------------------------|
C#|-15-15-15-15-15-15-15-15-15\14-14-14-14-14-14-14-14-14-14-14-14-14-14-14--|
G#|--------------------------------------------------------------------------|

C#|--------------------------------------------------------------------------|
G#|--------------------------------------------------------------------------|
E |--------------------------------------------------------------------------|
B |-16-16\14-14-14-14-14-14-14-14-14-14\13-13-13-13-13-13--------------------|
F#|--------------------------------------------------------------------------|
C#|-14-14\12-12-12-12-12-12-12-12-12-12\11-11-11-11-11-11--------------------|
G#|--------------------------------------------------------------------------|



Song Structure:
Verse x2
Chorus x4
verse x2
Chorus x6
Breakdown
Chorus till the song ends.

P.S. I would like to send out a BIG Fuck You to all you faggots that stole 
credit for my old tabs. 
Fuck You: 
Cenif (this guy deserves a MEGA FUCK YOU) cenif@hotmail.com 
Miguel Garzón knick_knack_666@hotmail.com
SAM ROWLANDS dead_evil4@hotmail.com  You NUTT BITING FAGGOTS
There were more but I guess reporting they're asses got them taken off before
I could get there info, Thieving biatchez.

| /  slide up
| \  slide down
| h  hammer-on
| p  pull-off
| ~  vibrato
| +  harmonic
| x  Palm Mute note

===============================================================================

-------------------------------------------------------------------------------
			     Battle Axe - Deftones
-------------------------------------------------------------------------------

Tabbed by: Cross
6/03/03
Email:xcrossx1@yahoo.com
I finally decided to release my tabs to the public (check the bottom for the 
reason why I didn't in the first place).

Tuning:Here is Stephen's REAL tuning G#,C#,F#,B,E,G#,C#. Thats 4 1/2 steps down
from regular tuning and 2 1/2 steps down for 7 string. I play these on a regular
Guitar so I don't have the extra C# but it still sounds 99-100% correct.

Note: You gotta play this song with style or it wont sound right.

Intro 
Guitar 1         each time you play it bring in a little more distortion
                         The last time around the end changes a bit.
C#|--------------------------------------------------------------------------|
G#|------------5---7--5------------------------------------------------------|
E |--------------------------------------------------------------------------|
B |---6---7--6---6------7-6-7-6-7--6-7-6-------------------------------------|x4
F#|-4---4--------------------------------------------------------------------|
C#|--------------------------------------0-0---------------------------------|
G#|--------------------------------------------------------------------------|

Chorus

C#|--------------------------------------------------------------------------|
G#|--------------------------------------------------------------------------|
E |--------------------------------------------------------------------------|
B |11-11-11-11-11-11-11-11-11-11-11-11-11-11-555555555555555-222222222222222-|
F#|11-11-11-11-11-11-11-11-11-11-11-11-11-11-555555555555555-222222222222222-|
C#|-9--9--9--9--9--9--9--9--9--9--9--9--9--9-333333333333333-000000000000000-|
G#|--------------------------------------------------------------------------|


C#|--------------------------------------------------------------------------|
G#|--------------------------------------------------------------------------|
E |--------------------------------------------------------------------------|
B |-444444444444444----------------------------------------------------------|
F#|-444444444444444----------------------------------------------------------|
C#|-222222222222222----------------------------------------------------------|
G#|--------------------------------------------------------------------------|

Verse
You all know you are supposed to bend it a little.

C#|--------------------------------------------------------------------------|
G#|--------------------------------------------------------------------------|
E |--------------------------------------------------------------------------|
B |11-11-11-11--11-11--11-11-11-11--11-11--11-11-11-11--11-11--11-11-11-11--2|
F#|11-11-11-11--11-11--11-11-11-11--11-11--11-11-11-11--11-11--11-11-11-11--2|
C#|-9--9--9--9---9--9---9--9--9--9---9--9---9--9--9--9---9--9---9--9--9--9--0|
G#|--------------------------------------------------------------------------|

BTW: I know this is right because you can hear the slide from 9\0---------^

Chino's part
Tuning: ATF tuning
During the first verse before he start singing:
D#|--------------------------------------------------------------------------|
A#|-3-3-3-3---3-3---3-3-3-3---3-3----3-3-3-3---3-3---3-3-3-3-----------------|
F#|-4-4-4-4---4-4---4-4-4-4---4-4----4-4-4-4---4-4---4-4-4-4-----------------|
C#|-4-4-4-4---4-4---4-4-4-4---4-4----4-4-4-4---4-4---4-4-4-4---0-------------|
G#|-2-2-2-2---2-2---2-2-2-2---2-2----2-2-2-2---2-2---2-2-2-2---0-------------|
C#|------------------------------------------------------------0-------------|

Then at the end he plays:
its kinda a freestyle so just fool with it. He lets off the 12 sometimes
(watch the writing sessions on the CD).

3:52
D#|-----|
A#|-----|
F#|-14--|
C#|--x--|
G#|-12--|
C#|-----|

Song structure:
Intro  
Chorus x2
Verse  x5 Chino plays the first time around
chorus x2
verse  x6 
chorus x6 Chino plays the last two times around
verse  x4 

P.S. I would like to send out a BIG Fuck You to all you faggots that stole 
credit for my old tabs. 
Fuck You: 
Cenif (this guy deserves a MEGA FUCK YOU) cenif@hotmail.com 
Miguel Garzón knick_knack_666@hotmail.com
SAM ROWLANDS dead_evil4@hotmail.com  You NUTT BITING FAGGOTS
There were more but I guess reporting they're asses got them taken off before
I could get there info, Thieving biatchez.

| /  slide up
| \  slide down
| h  hammer-on
| p  pull-off
| ~  vibrato
| +  harmonic
| x  Mute note

===============================================================================

-------------------------------------------------------------------------------
			    Bloody Cape - Deftones
-------------------------------------------------------------------------------

Tabbed by: Cross
7/10/03 
Email:xcrossx1@yahoo.com
I finally decided to release my tabs to the public (check the bottom for the 
reason why I didn't in the first place).

Tuning:Here is Stephen's REAL tuning G#,C#,F#,B,E,G#,C#. Thats 4 1/2 steps down
from regular tuning and 2 1/2 steps down for 7 string. I play these on a regular
Guitar so I don't have the extra C# but it still sounds 99-100% correct.

Effects: use chorus on intro. and for the verse chorus and bit of flanger.
Intro

C#|--------------------------------------------------------------------------|
G#|--------------------------------------------------------------------------|
E |-7-7-7-7-7-7-7-7-7-7-7-7-7-7-7--3-3-3-3-3-3-3-3-3-3-3-3-3-3-3-3-----------|
B |-0-0-0-0-0-0-0-0-0-0-0-0-0-0-0--0-0-0-0-0-0-0-0-0-0-0-0-0-0-0-0-----------|x2
F#|--------------------------------------------------------------------------|
C#|-7-7-7-7-7-7-7-7-7-7-7-7-7-7-7--3-3-3-3-3-3-3-3-3-3-3-3-3-3-3-3-----------|
G#|--------------------------------------------------------------------------|

Chorus
Part 1
C#|--------------------------------------------------------------------------|
G#|--------------------------------------------------------------------------|
E |--------------------------------------------------------------------------|
B |----------------------------------5-5-5-5-5-5-----------------------------|
F#|---4-4---4-4---4-4---4-4--5\4-4---5-5-5-5-5-5-----------------------------|
C#|---4-4---4-4---4-4---4-4--5\4-4---3-3-3-3-3-3-----------------------------|
G#|-0-2-2-0-2-2-0-2-2-0-2-2--3\2-2-0-----------------------------------------|

Part 2
C#|--------------------------------------------------------------------------|
G#|--------------------------------------------------------------------------|
E |--------------------------------------------------------------------------|
B |----------------------------------5-5-5-5/7-7-----------------------------|
F#|---4-4---4-4---4-4---4-4--5\4-4---5-5-5-5/7-7-----------------------------|
C#|---4-4---4-4---4-4---4-4--5\4-4---3-3-3-3/5-5-----------------------------|
G#|-0-2-2-0-2-2-0-2-2-0-2-2--3\2-2-0-----------------------------------------|

verse
                 Slide that 8 in there once in a while.
C#|--------------------------------------------------------------------------|
G#|--------------------------------------------------------------------------|
E |-7-7-7-7-7-7-7-7-7-7-7-7-7-7-7--3-3-3-3-3-3-3-3-3-3-3-3-3-3-3-3-----------|
B |-0-0-0-0-0-0-0-0-0-0-0-0-0-0-0--0-0-0-0-0-0-0-0-0-0-0-0-0-0-0-0-----------|
F#|--------------------------------------------------------------------------|
C#|-7-7-7-7-7-7-7/8\7-7-7-7-7-7-7--3-3-3-3-3-3-3-3-3-3-3-3-3-3-3-3-----------|
G#|--------------------------------------------------------------------------|

Breakdown
2:40
C#|--------------------------------------------------------------------------|
G#|--------------------------------------------------------------------------|
E |--------------------------------------------------------------------------|
B |--------------------------------------------------------------------------|
F#|---3/4-4---3/4-4---3/4-4---3/4-4---3/4-4---3/4-4---3/4-4---3/4-4----------|
C#|---3/4-4---3/4-4---3/4-4---3/4-4---3/4-4---3/4-4---3/4-4---3/4-4----------|
G#|-0h1/2-2-0h1/2-2-0h1/2-2-0h1/2-2-0h1/2-2-0h1/2-2-0h1/2-2-0h1/2-2----------|


Song Structure:

Intro 
Chorus x2
Verse  x4
Chorus x2
verse  x4
chorus x2
Breakdown x1
Verse  x2
part 1 of chorus with open C# and G# (little ones) x1
Breakdown x4

I tabbed this for all those real Deftones fans @ Deftonesworld.com check out 
their message board.

P.S. I would like to send out a BIG Fuck You to all you faggots that stole 
credit for my old tabs. 
Fuck You: 
Cenif (this guy deserves a MEGA FUCK YOU) cenif@hotmail.com 
Miguel Garzón knick_knack_666@hotmail.com
SAM ROWLANDS dead_evil4@hotmail.com  You NUTT BITING FAGGOTS
There were more but I guess reporting they're asses got them taken off before
I could get there info, Thieving biatchez.

| /  slide up
| \  slide down
| h  hammer-on
| p  pull-off
| ~  vibrato
| +  harmonic
| x  Mute note

===============================================================================

-------------------------------------------------------------------------------
			     Moana - Deftones
-------------------------------------------------------------------------------

Tabbed by: Cross
7/16/03
Email:xcrossx1@yahoo.com
I finally decided to release my tabs to the public (check the bottom for the 
reason why I didn't in the first place).

Tuning: Here is Stephen's REAL tuning G#,C#,F#,B,E,G#,C#. Thats 4 1/2 steps down
from regular tuning and 2 1/2 steps down for 7 string. I play these on a regular
Guitar so I don't have the extra C# but it still sounds 99-100% correct.

Intro
C#|--------------------------------------------------------------------------|
G#|--------------------------------------------------------------------------|
E |-----------------------------------------14--14-14-14--14-14-14--14-14----|
B |-14--14-14-14--14-14-14--14-14-14--14-14--x---x--x--x---x--x--x---x--x----|
F#|--x---x--x--x---x--x--x---x--x--x---x--x-12--12-12-12--12-12-12--12-12----|
C#|-12--12-12-12--12-12-12--12-12-12--12-12----------------------------------|
G#|--------------------------------------------------------------------------|

Verse 
*                           I couldn't fit the last 2 but there are 16 each
C#|--------------------------------------------------------------------------|
G#|--------------------------------------------------------------------------|
E |---------------------------------14-14-14-14-14-14-14-14-14-14-14-14-14-14|
B |-9-9-9-9-9-9-9-9-9-9-9-9-9-9-9-9--x--x--x--x--x--x--x--x--x--x--x--x--x--x|
F#|-7-7-7-7-7-7-7-7-7-7-7-7-7-7-7-7-12-12-12-12-12-12-12-12-12-12-12-12-12-12|
C#|-7-7-7-7-7-7-7-7-7-7-7-7-7-7-7-7------------------------------------------|
G#|--------------------------------------------------------------------------|

Verse  
**
C#|----0-------0-------0-------0-------0-------------------------------------|
G#|----0-------0-------0-------0-------0-------------------------------------|
E |----------------------------------------14--14-14-14--14-14-14--14-14-----|
B |-----------------------------------------x---x--x--x---x--x--x---x--x-----|
F#|-7--7-7-7-7-7-7-7-7-7-7-7-7-7-7-7-7-7---12--12-12-12--12-12-12--12-12-----|
C#|-7--7-7-7-7-7-7-7-7-7-7-7-7-7-7-7-7-7-------------------------------------|
G#|-5--5-5-5-5-5-5-5-5-5-5-5-5-5-5-5-5-5-------------------------------------|
Verse 
***                          
C#|----0-------0-------0-------0-------0-------------------------------------|
G#|----0-------0-------0-------0-------0-------------------------------------|
E |---------------------------------------14--14-14-14--14-14-14--14-14/16-16|
B |----------------------------------------x---x--x--x---x--x--x---x--x/-x--x|
F#|-7--7-7-7-7-7-7-7-7-7-7-7-7-7-7-7-7-7--12--12-12-12--12-12-12--12-12/14-14|
C#|-7--7-7-7-7-7-7-7-7-7-7-7-7-7-7-7-7-7-------------------------------------|
G#|-5--5-5-5-5-5-5-5-5-5-5-5-5-5-5-5-5-5-------------------------------------|

Chorus
*
C#|--------------------------------------------------------------------------|
G#|--------------------------------------------------------------------------|
E |--------------------------------------------------------------------------|
B |-11-11-11-11-11-11-11-11-9-9-9-7-10---------------------------------------|
F#|-11-11-11-11-11-11-11-11-9-9-9-7-10---------------------------------------|
C#|--9--9--9--9--9--9--9--9-7-7-7-5--8---------------------------------------|
G#|--9--9--9--9--9--9--9--9--------------------------------------------------|

Chorus
**             The open C# and G# are optional.
C#|-0-0-0-0--0--0-0-0-0--0--0-0-0-0--0--0-0-0-0--0---------------------------|
G#|-0-0-0-0--0--0-0-0-0--0--0-0-0-0--0--0-0-0-0--0---------------------------|
E |--------------------------------------------------------------------------|
B |-9-9-9-7-10--9-9-9-7-10--9-9-9-7-10--9-9-9-7-10---------------------------|
F#|-9-9-9-7-10--9-9-9-7-10--9-9-9-7-10--9-9-9-7-10---------------------------|
C#|-7-7-7-5--8--7-7-7-5--8--7-7-7-5--8--7-7-7-5--8---------------------------|
G#|--------------------------------------------------------------------------|

End with this:     and a pick slide. 
C#|----|
G#|----|
E |-9--|
B |-9--|
F#|-7--|
C#|-7--|
G#|-0--|

Song Structure:
Intro x6
Verse * x4
Verse ** x1
Verse *** x1
Chorus * x4
Chorus ** x1
Verse * x4
Verse ** x1
Verse *** x1
Chorus * x4
Chorus ** x1
Intro x4
Verse ** x1
Verse *** x1
Verse ** x1
Verse *** x1
Verse ** x1
Verse *** x1
Chorus * x4
Chorus ** x2
End

P.S. I would like to send out a BIG Fuck You to all you faggots that stole 
credit for my old tabs. 
Fuck You: 
Cenif (this guy deserves a MEGA FUCK YOU) cenif@hotmail.com 
Miguel Garzón knick_knack_666@hotmail.com
SAM ROWLANDS dead_evil4@hotmail.com  You NUTT BITING FAGGOTS
There were more but I guess reporting they're asses got them taken off before
I could get there info, Thieving biatchez.

| /  slide up
| \  slide down
| h  hammer-on
| p  pull-off
| ~  vibrato
| +  harmonic
| x  Mute note

===============================================================================

Hope you enjoy playing Deftones as much as I do.  Fuck all you wannabe's who steal 
abs you no talent bastards.  Goto www.deftonesworld.com for all your Deftones news
and check out their message board to find some interesting fans who have as much
love for the Deftones as you.

Respect,
Cross
Comments