Deftones - Deftones Chords & Tabs

 

Deftones Chords & Tabs

Deftones Chords & Tabs

Version: 1 Type: Tab 0 ratings
1 star 2 stars 3 stars 4 stars 5 stars
comments

Deftones Tab

   
Subject: deftones tabs
Date: Sat, 2 May 1998 22:21:58 -0400
From: "Ken Meisenzahl" 
Organization: newsread.com ISP News Reading Service
Newsgroups: alt.guitar.tab



    -----------------------
         1 Bored
         2 Minus Blindfold
         3 One Weak
         4 nosebleed
         5 Lifter
         6 Root
         7 7 Words
         8 Birthmark
         9 Engine No.9
        10 Fireal
        11 Track 11
    -------------------------

Bored-Deftones

RIFF 1          RIFF 2

E||----------------||------------------------||
B||----------------||------------------------||
G||----------------||----------8-8----7-7----||         h: hammer on
D||--------h-p-----||----------8-8----7-7----||         p: pull off
A||--111-0-^1^0----||--5-5-----6-6-66-5-5----||
D||--111-0-^1^0----||--5-5--55---------------||

  pm............

**Keep hand palm muted in front(!) of bridge through riff, esp. when the

last note rings out--it gives it that bassy sound--then at the very end,

just before you repeat, let up on the palm mute.

RIFF 3                  RIFF 4                  RIFF 4-END

E||----------------||---------------------||-----------------------||
B||----------------||---------------------||-----------------------||
G||-----------7----||---------------------||-----------------------||
D||-----------7----||---------------------||-----------------8888--||
A||--111-0--1/5----||--5555--5-5-55--5-5--||--5555--5-5-56---6666--||
D||--111-0--1^0----||--5555--5-5-55--5-5--||--5555--5-5-5--5-5555--||

Riff 1(24x)-Riff 2(2)-Riff 1(16x)-Riff 2(4x)-Riff 3(4x)-Riff 1(16x)

Riff 2(4x)-Riff 4(3x)-Riff 4(end)-tacit:(riff 2)bass-Riff 2(8x)-Riff

3(3x)-Riff 1(1x)

---------------------------------------
Minus Blindfold-Deftones

Riff 1   |...1-3.....  |...4.......   |..last...
e||-------------------||-------------||---------||
b||------0-----0------||------0------||---------||   (#) means ring out
G||----0-----0---0----||----0---0----||---------||   could play it for
D||--2-----4------(4)-||--3------(3)-||---------||   fluid motion
A||-------------------||-------------||--2-2-2--||
E||-------------------||-------------||--0-0-0--||

Riff 2                                                    Fill 1
e||-------------------------------------0--||-----||-----------------------||
b||----------------<5>------------------0--||-----||-----<5>-<5>-<5>-<5>---||
G||------------------<5>----------------0--||-----||-----<5>-<5>-<5>-<5>---||
D||-----------------3--<5>--------------0--||--2--||-----<5>-<5>-<5>-<5>---||
A||--2-4-4-2--2-4-5-1-5-4---------------2--||--2--||-----------------------||
E||--0-2-2-0--0-2-3---3-2--0-2-2--0-0-2-3--||--0--||--x--------------------||

Riff 3                      Fill 2
e||-----------------------||-----------------------||
b||-----------<5><5>-<5>--||---------<5>-----------|| <#> are harmonics
G||-----------<5><5>-<5>--||-------------<5>-------|| # fret is the general
D||-----------<5><5>-<5>--||-----------------<5>---|| location of the
A||--2-2--2-2-------------||--2-2-2-2--------------|| harmonic
E||--0-0--0-0-------------||--0-0-0-0--------------||
Harmonics tacit last time

Fill 3            Riff 4.........   ..last time...
e||--0//------||----------------||----------------||
b||--0//------||----------------||----------------||
G||--0//------||----------------||----------------||
D||--4//------||----------------||------------3---||
A||--4//------||------1---------||------1-----3---||
E||--2//------||--3-3----1-111--||--3-3----1--1---||
                 PM..............   PM.....

End riff                  Fill 4       Tag Riff
e||------------------||-----------||-----<12>---||
b||-------------<4>--||-----------||------<12>--||
G||-------------<4>--||-----------||------------||
D||-------------<4>--||-----------||------------||
A||--2-2----2--------||--33-11-0--||-2-2--2-2---||
E||--0-0-00-0--x-----||-----------||-0-0--0-0---||

Order:
Riff 1(3x w/ "last")-Riff 2(2x)-Fill 1-Riff 1(2x)-Riff 3(4x)
Riff 1(2x)-Riff 2(4x)-Fill 2-Riff1(2x)-Riff 3(4x)
Riff 1(2x w/ "last")-Riff 2(4x)-Fill 3-Riff 4(14x + "last time")
Riff 2(4x w/o "E")-End Riff(4x-4th use Fill4 instead of harmonics)
End riff(3x) tag riff
-------------------------------------------------------------------
One Weak-Deftones

Riff 1                            Riff 2
e||--------------------------||--------------------------||
b||-- palm mute open notes --||------ w/ flanger --------||
G||--------------------------||--------------------------||
D||--------------------------||-----4--------------------||
A||--------------------------||-----4--------------------||
E||--00-2--00-2--00-2--00-3--||--00-2--------------00-3--||

Riff 3
e||--------------------------||
b||--------------------------||
G||--------------------------||
D||--------------------------||
A||--------------------------||
E||--0-22--0-22--0-22--0-23--||

Riff 4
e||--------------0------------------||
b||--------------0------------------||
G||--------------0------------------||
D||--6-6--6-------------------------||
A||--4-4--4-6-2-----55-444-777-554--||
E||---------400----033-222-555-332--||

Fill 1        Riff 5
e||--x-x--||---------------------------||
b||--x-x--||---------------------------||
G||--x-x--||---------------------------||
D||-------||---------------------------||
A||-------||----44----44----44-----4---||
E||-------||--0-22--0-22--0-22--0-2-3--||

Riff 5                          Fill a    Fill b
e||------------------------||--x-x--||-------||
b||------------------------||--x-x--||-------||  1/4 step release
G||--------------------**--||--x-x--||--^4---||  substitute fills @ **
D||------------------------||-------||-------||
A||--444-222-444-222-4455--||-------||-------||
E||--222-000-222-000-2233--||-------||-------||

--------------------------------------------------

Nosebleed
by Justin Tremayne Otayco

dropped-d tuning

intro:

e-----------------------------------------------------------|
B-----------------------------------------------------------|
G-----------------------------------------------------------|
D--4-4-/5--5/7---7--6---7--11---7--6--7--6--7---4--4--------|
A--4-4-/5--5/7---7--6---7--11---7--6--7--6--7---4--4--------|
D--4-4-/5--5/7---7--6---7--11---7--6--7--6--7---4--4--------|

verse:
   p.m....]              a.harmonix......]
e-------------------|--------------------------------|
B-----------(4 times)--------------------5-----------|
G-------------------|----5--5--5-5--5-5--------------|
D--5--5---5---5-----|--------------------------------|
A--5--5---5---5-----|--------------------------------|
D--5--5---5---5-----|--------------------------------|

-----------------------------------------------------------
Lifter
by Kaygee

dropped-d tuning

Riff 1
   PM---------------------------------------------------
e:---------------------------------------------------------|
B:--------------------------------------------------------|
G:---------------------------------------------------------|
D:--------------------------------------------------------|
A:---------------------------------------------------------|
D:0--2--2--2--2--2--2--2--2-2-3--3--3--3--3--3--2--|

 Riff 2
e:---------2----------------3--|
B:--------5----------------6--|
G:--------4----------------5--|
D:-0--2--2--2--2--3--3--3--|
A:-0--2--2--2--2--3--3--3--|
D:-0--2--2--2--2--3--3--3--|

Riff 3
   PM-----------------------------------------------------
e:------------------------------------------------------------|
B:----------------------------------------------------------|
G:----------------------------------------------------------|
D:--0--2--2--2--2--2--2--2--3--3--3--3--3--3--3--2--|
A:----------------------------------------------------------|
D:----------------------------------------------------------|

Riff 4
e:---------------------------------------------------------|
B:---------------------------------------------------------|
G:--------------------------------------------------------|
D:-4--4--4--4--4--4--4--4--4--4--4--4--4--4--4--4--|
A:-4--4--4--4--4--4--4--4--4--4--4--4--4--4--4--4--|
D:-4--4--4--4--4--4--4--4--4--4--4--4--4--4--4--4--|

Riff 5
e:-------------------------------------------------------|
B:-------------------------------------------------------|
G:------------------------------------------------------|
D:-0--2--2--2--2--2--2--2--2--3--3--3--3--3--3--3|
A:-0--2--2--2--2--2--2--2--2--3--3--3--3--3--3--3|
D:-0--2--2--2--2--2--2--2--2--3--3--3--3--3--3--3|

----------------------------------------------------

Root-Deftones
[ Tab from: http://www.guitartabs.cc/tabs/d/deftones/deftones_tab.html ]
RIFF 1(Intro(3x)/verse(8x))        RIFF 1-END
E||------------------------------||------------------------||
B||------------------------------||------------------------||
G||----99--------77--------------||----99------------------||
D||------99-1010---1010-99-------||------99-1010 1-1--1-1--||
A||--77--------------------1010--||--77----------1-1--1-1--||
E||------------------------------||--------------0-0--0-0--||

RIFF 2(Chorus)
E||---------------------------||
B||---------------------------||
G||-----44--------------------||
D||--22-22-44-55-77-55-44-00--||
A||--22----22-33-55-33-22-XX--||
E||--00-------------------33--||

RIFF 3a       (2x)  RIFF 3b
E||--------------||----------------------------||
B||--------------||----------------------------||
G||--------------||---------------------9------||  Gotta have the
D||--1-----1111--||--1-----11-1----1111-9------||  midrange chunk
A||--1-----1111--||--1-----11-1----1111-7------||  for this part.
E||--0-----0000--||--0-----00-0----0000-0------||
         pm....          pm....    pm....

Fill 1                      Fill 2(before Riff4)
E||----------------------||------------||
B||----------------------||------------||
G||-----------9-------0--||------------||
D||--11111111-9----------||--11111111--||
A||--11111111-7----------||--11111111--||
E||--00000000-0----------||--00000000--||

Riff 4(Bridge-a la Korn)
E||-----------------------------------------------------||
B||-----------------------------------------------------||
G||-----------------------------------------------------||
D||------------------------------------------------3----||
A||--8\7-x-7\6-x-6\5-x-5\4-x-4\3-3-------2-------2--2---||
E||--6\5-x-5\4-x-4\3-x-3\2-x-2\1-1--0000-0-00-00-0------||

Fill 3(after repeat Riff3a/b)               Fill 4(tremolo picking)
E||-----------------0----------------------0--||--0//--||
B||-------------------0--------------------0--||--0//--||
G||--(9)------4---------0------------------0--||--0//--||
D||--(9)--2-----------------------------------||--2//--||
A||--(7)----2---------------------------------||--2//--||
E||--(0)--------------------------------------||--0//--||

Riff 5(tremolo pick these notes)                      End fill
E||--------------------------------------------||-------------------||--1--||
B||--------------------------------------------||-------------------||--1--||
G||--------------------------------9--------9--||-------------------||--4--||
D||------6--7-6-------6--7-6-------7--------7--||--3-3-3-------3-3--||--3--||
A||--7-8--------8-7-8--------8-7---8----7---8--||--3-3-3-------3-3--||--3--||
E||------------------------------0--------0----||--1-1-1-------1-1--||--1--||

----------------------------------------------------------

7 Words-Deftones

Riff 1
e||--------------------------||    Bass Riff
b||--------------------------||
G||--------------------------||------------------||
D||--9-9-999-9---9-9-999-9---||--0^2 0------0----||
A||--7-7-777-7---8-8-888-8---||--------0-11---1--||
D||--------------------------||-----(2)----------||

         Riff 2    |..3....  |....4....
e||--0--||-----------------||----------||
b||--0--||-----------------||--11~~~~--||
G||--0--||--------10~~~~~--||----------||
D||--0--||--2--------------||----------||
A||--0--||--2--------------||----------||
D||--2--||--2--------------||----------||

Fill 1                  Riff 3
e||----------------||---------------------||
b||----------------||---------------------||
G||----------------||---------------------||
D||--2-2-2--2-2-2--||--------3-3-2---2-3--||
A||--2-2-2--2-2-2--||--0-2---1-1-0---0-1--||
D||--2-2-2--2-2-2--||--0-2-2--------------||

-----------------------------------------------------

 Birthmark

|
|------------------------------------------------|
|----5-----5------5-----5--------5---------------|
|----5-------5----5-------5------5---------------|
|----4---------4---4--------4----4---------------|
|------------------------------------------------|
|------------------------------------------------|

|-------------------------------------------------------|
|-------------------------------------------------------|
|-------------------------------------------------------|
|----------------4>--------------------------4>---------|
|2-22-2-22-2-22----2-3-------3-33-3-33-3-33-----2-3-----|
|0-00-0-00-0-00--------------0-00-0-00-0-00-------------|

|------------------|
|------------------|
|------------------|
|------------------|  7x
|--2--5-5-4--------|
|--0--3-3-2--------|

------------------------------------------

Engine No.9

tunings from low to high:

(d, A, d, G, B, E) aka dropped-d tuning

intro:

e----------------------------------------0----------|
B----------------------------------------0----------|
G----------------------------------------0----------|
D----------------------------------------4----------|
A---------------------------------------------------|
D--4h5-4--0--4h5-4--0--4h5-4--0---4h5---------------|

verse/pre-chorus:

e-----------------------------------------0---------|
B-----------------------------------------0---------|
G-----------------------------------------0---------|
D--4h5-4--0--4h5-4--0--4h5-4--0----4h5----4---------|
A--4h5-4--0--4h5-4--0--4h5-4--0----4h5--------------|
D--4h5-4--0--4h5-4--0--4h5-4--0----4h5--------------|

e---------------------------------------------------|
B---------------------------------------------------|
G---------------------------------------------------|
D--4h5-4--0--4h5-4--0--4h5-4--0----4h5----7---------|
A--4h5-4--0--4h5-4--0--4h5-4--0----4h5----7---------|
D--4h5-4--0--4h5-4--0--4h5-4--0----4h5----7---------|

chorus:

e-------0-------0-------0-------------------------------|
B-------0-------0-------0-------------------------------|
G-------4-------0-------0-------------------------------|
D--4-4--4--4-4--4--4-4--4--4-4---8--8-8--7---7--5h7p5---|
A--4-4-----4-4-----4-4-----4-4---8--8-8--7---7--5h7p5---|
D--4-4-----4-4-----4-4-----4-4---8--8-8--7---7--5h7p5---|

endtro:

        pm.]

e--------------------------------------|
B--------------------------------------|
G-------------------------2------------|
D--2h4--4-4--4--2--4--4---2---2--------|
A--2h4--4-4--4--2--4--4---0---2--------|
D--2h4--4-4--4--2--4--4-------2--------|

--------------------------------------------
Fireal


normal tuning

intro/verse

---------------|-------------------------------
-----------3---|---------------3-----------------
------3------3-|---------3-------3-----------------
----3--3-------|-------3---3-----------------------
---------------|-------------------------------
--3------------|-----0---------------------------
     4X

Chorus

----------------------------------------------
----------------------------------------------
-------------------|---------------------------
--5--4-4--5--4-4-4-|--5--4-4----------------------
--5--4-4--5--4-4-4-|--5--4-4--2-2-2------------------
--3--2-2--3--2-2-2-|--3--2-2--0-0-0------------------

     3X                         1X

verse, chorus, then this, until the end:

----------------------------------------------
----------------------------------------------
----------------------------------------------
-8-8-8-8--8-8-8-8/-12-12-12-12--12-12-12-12-------5-8-7-7--5-5/-
-6-6-6-6--6-6-6-6/-10-10-10-10--10-10-10-10--7-7--3-6-5-5--3-3/--
---------------------------------------------5-5-------------

-----------------------------------------

track 11

E{-----------------------------------------------}
B{-----------------------------------------------}
G{-0-0-0-0-0-0-0-0-0-0-0-0-0-------------0-------}
d{-4-4-4-4-4-4-4-4-4-4-4-4-0-0-0-0-0-0-0-0-0-0-0-}
A{---------------------------3-3-3-3-3-3-3-3-3-3-}
E{-----------------------------------------------}

this part could be separated into 2 guitars

E{-2-2-2-2-2-2-2-2-2-2-2-2-2-0-0-0-0-0-0-0-0-0-0-}
B{-0-0-0-0-0-0-0-0-0-0-0-0-0-0-0-0-0-0-0-0-0-0-0-}
G{-0-0-0-0-0-0-0-0-0-0-0-0-0-0-0-0-0-0-0-0-0-0-0-}
d{-4-4-4-4-4-4-4-4-4-4-4-4-0-0-0-0-0-0-0-0-0-0-0-}
A{---------------------------3-3-3-3-3-3-3-3-3-3-}
E{-----------------------------------------------}

this is before it slips into the part with distortion.

E{-2-2-2-2-2-2-2-2-3-3-3-3-2-2-2-2-2-2-2-2-2-2-2-}
B{-0-0-0-0-0-0-0-0-0-0-0-0-0-0-0-0-0-0-0-0-0-0-0-}
G{-0-0-0-0-0-0-0-0-0-0-0-0-0-0-0-0-0-0-0-0-0-0-0-}
d{-4-4-4-4-4-4-4-4-4-4-4-4-4-4-4-4-4-4-4-4-4-4-4-}
A{-----------------------------------------------}
E{-----------------------------------------------}

With distortion.Let it ring on the last chord.

E{-----------------------------------------------}
B{-----------------------------------------------}
G{-----------------------------------------------}
d{-5-5-5-5-5-5-5-5-7-7-5-5-5-5-5-7-7-7-9-9-9-9-9-}
A{-3-3-3-3-3-3-3-3-5-5-3-3-3-3-3-5-5-5-7-7-7-7-7-}
E{-------------------------------------0-0-0-0-0-}
Comments