Deftones - Deathblow Chords & Tabs

 

Deathblow Chords & Tabs

Deftones Chords & Tabs

Version: 3 Type: Tab 0 ratings
1 star 2 stars 3 stars 4 stars 5 stars
comments

Deathblow Tab

   
Deftones	Deathblow
Ab-Db-Gb-Cb-Fb-Ab-Db

Intro
|---------------------------------------------------------------------------------------------------------------|
|-----------------------------------------------------------------------------------------------------------0---|
|----------------------------------------------------0---------------------------------------------------0------|
|--------------------------------------------------------------------------------------------------------0------|
|-----------------------------------0------------0-------------------------------------------0---------0--------|
|-10---10----10---10----0-5\2-2-2-2----2-2-2-2-2---2-------10---10----10---10----0-5\2-2-2-2-2---2---2----------|
|----0----------0--------------------------------------0------0----0-----0-----0------------------------------0-|

Couplet (feeling / variantes)
|----------------------------------------------------------------------------------------------------------------|
|--------------------------------------------------------------------------------------------------------------0-|
|-----------------------------------------------------0--------------------------------------------------------0-|
|----------------------------------------------------------------------------------------------------------------|
|-----------------------------------0-------------0-------------------------------------------0------------------|
|-10---10----10---10----0-5\2-2-2-2-2---2-2-2-2-2---2-------10---10---------------0-5\2-2-2-2-2-2-2-2-2-2-2-2-2--|
|----0----0-----0------0--------------------------------0------0----0---0---0-0-0--------------------------------|


Refrain
|-0-0-0-0-0-0-0-0-0-0-0-0-0-0-0-0---------0-0-0-0-0-0-0-0-0-0-0-0-0-0-0-0-|
|-0-0-0-0-0-0-0-0-0-0-0-0-0-0-0-0---------0-0-0-0-0-0-0-0-0-0-0-0-0-0-0-0-|
|-------------------------------------------------------------------------| riff 1
|-2-2-2-2-2-2-2-2-2-2-2-2-2-2-2-2---------2-2-2-2-2-2-2-2-2-2-2-2-2-2-2-2-|
|-2-2-2-2-2-2-2-2-2-2-2-2-2-2-2-2-2~~~~~~-2-2-2-2-2-2-2-2-2-2-2-2-2-2-2-2-|
|-0-0-0-0-0-0-0-0-0-0-0-0-0-0-0-0-2~~~~~~-0-0-0-0-0-0-0-0-0-0-0-0-0-0-0-0-|
|---------------------------------0~~~~~~---------------------------------|
 \______________________________/         \_____________________________/
                 2x					      2x
[ Tab from: http://www.guitartabs.cc/tabs/d/deftones/deathblow_tab_ver_3.html ]
|----------------------------------------------------------------------------|
|----------------------------------------------------------------------------|
|----------------------------------------------------------------------------| riff 2
|------------5-5-5-5-5-5-5-5-5-5-5-5-5-5-5-5---------------------------------|
|-2~~~~~~----5-5-5-5-5-5-5-5-5-5-5-5-5-5-5-5-7-7-7-7-7-7-7-7-7-7-7-7-7-7-7-7-|
|-2~~~~~~----3-3-3-3-3-3-3-3-3-3-3-3-3-3-3-3-7-7-7-7-7-7-7-7-7-7-7-7-7-7-7-7-|
|-0~~~~~~------------------------------------5-5-5-5-5-5-5-5-5-5-5-5-5-5-5-5-|

|-----------------0--0-0-0-0-0-0-0--0----0-0-0-0-0-0--0----0-0--0----0-0-|
|-----------------0--0-0-0-0-0-0-0--0----0-0-0-0-0-0--0----0-0--0----0-0-|
|------------------------------------------------------------------------| riff 3
|---------9---9---9/11111111111111-11/12121212121212-12/141414-14/161616-|
|------------------------------------------------------------------------|
|---------7---7---7/-9-9-9-9-9-9-9—-9/10101010101010-10/121212-12/141414-|
|-0-0-0-0-0-0-0-0-0--0-0-0-0-0-0-0--0----0-0-0-0-0-0--0----0-0--0----0-0-|

|--0-0-0-0-0-0-0-0-0-0-0-0-0-0-0-0-0-0-0-0-0-0-0-0-0-0-0-0-0-0-0-0-0-|
|--0-0-0-0-0-0-0-0-0-0-0-0-0-0-0-0-0-0-0-0-0-0-0-0-0-0-0-0-0-0-0-0-0-|
|--------------------------------------------------------------------|
|-171717171717171717171717171717171414141414141414141414141414141414-|
|--------------------------------------------------------------------|
|-151515151515151515151515151515151212121212121212121212121212121212-|
|--0-0-0-0-0-0-0-0-0-0-0-0-0-0-0-0-0-0-0-0-0-0-0-0-0-0-0-0-0-0-0-0-0-|

Refrain 1 : riff 1
Refrain 2 : riff 1 / riff 2 / riff 3
Refrain 2 : riff 1 / riff 2 / riff 3 2x

Dernière fois avant le 1er refrain
|-----------------------------------------------------------------------------------|
|-----------------------------------------------------------0~--0---0-0-------------|
|-----------------------------------------------------------0~--0---0-0-------------|
|-----------------------------------------------------------------4-----4-----------|
|----------------------------------0------------------------------------------------|
|-10---10---10---10----0-5\2-2-2-2-2-2-2-2-2-2-2-2-2-2-2-2-----------------2-2-2-2~-|
|----0----0----0-----0--------------------------------------------------------------|
								      .................

Dernière fois avant les 2 derniers refrains (variantes)
|-------------------------------------------------------------------|
|------------------------------------------0-----0-------------0--0-|
|---------------------------------------0--0---0-0-------0-----0--0-|
|---------------------------------------0--------4---4---4-4--------|
|----------------------------------0-0------------------------------|
|-10---10---10---10----0-5\2-2-2-2-2-2------------------------------|
|----0----0----0-----0----------------------------------------------|
                                               .     .

Outro : jeu sur les trois dernières cordes à vide et parfois sur la quatrième case de la 4e corde (Eb) en PM.
 Finir sur un E à vide.
Comments