Deftones - Dai The Flu Chords & Tabs

 

Dai The Flu Chords & Tabs

Deftones Chords & Tabs

Version: 2 Type: Tab 0 ratings
1 star 2 stars 3 stars 4 stars 5 stars
comments

Dai The Flu Tab

   
Deftones	Dai the Flu							
Db-Ab-Db-Gb-Bb-eb

Refrain
|-0~--0-0--0~~--0-0--0--0~--2-2-2-2-2-2-2-2-2-2-2-2-2-2-2-2-||--------|
|-0~--0-4--0~~--0-4--0--4~--0-0-0-0-0-0-0-0-0-0-0-0-0-0-0-0-||--------|
|-4~--4-4--4~~--4-4--4--4~--0-0-0-0-0-0-0-0-0-0-0-0-0-0-0-0-||-2,3*~~-| fill précédent le 3e refrain 
|-2~--2-2--2~~--2-2--2--2~----------------------------------||--------| (en fade in)
|-2~--2-2--2~~--2-2--2--2~----------------------------------||--------|
|-2~--2-2--2~~--2-2--2--2~----------------------------------||--------|

Thème / Final
|---------0~--0~-----------0~--0~-----------0~--0~-----------0~--0~-|
|---------0~--0~-----------0~--0~-----------0~--0~-----------0~--0~-|
|----------------------------------------------------5~~~--5-----5~-|
|-2~~~--2-----2~---5~~~--5-----5~---6~~~--6-----6~---5~~~--5-----5~-|
|-2~~~--2-----2~---5~~~--5-----5~---6~~~--6-----6~---3~~~--3-----3~-|
|-2~~~--2-----2~---5~~~--5-----5~---6~~~--6-----6~------------------|
[ Tab from: http://www.guitartabs.cc/tabs/d/deftones/dai_the_flu_tab_ver_2.html ]
Solo joué aux troisièmes et quatrièmes temps du final
|-0~~~~~-3~~-2~~-0~~~~~~-8~~~~~~~~~~~~-|
|-0~~~~~~~~~~~~~~~~~~~~~~~~~~~~~~~~~~~-|
|--------------------------------------|
|--------------------------------------|
|--------------------------------------|
|--------------------------------------|
~~~~~~~~~~~~~~~~~~~~~~~~~~~~~~~~~~~~~~

Pont
|------------------------------------------------------------------|
|------------------------------------------------------------------|
|------------------------------------------------------------------|
|-2-2-2-2-2-0------------------------------------------6-6-6-6-6-6-|
|-2-2-2-2-2-0------------------------------------------6-6-6-6-6-6-|
|-2-2-2-2-2-0------------------------------------------6-6-6-6-6-6-|

|------------------------------------------------------------------|
|------------------------------------------------------------------|
|------------------------------------------------------------------|
|-2-2-2-2-2-2----------------------------------------6-6-6-0-0-0-0-|
|-2-2-2-2-2-2----------------------------------------6-6-6-0-0-0-0-|
|-2-2-2-2-2-2----------------------------------------6-6-6-0-0-0-0-|
Comments