Deftones - Change Chords & Tabs

 

Change Chords & Tabs

Deftones Chords & Tabs

Version: 6 Type: Tab 0 ratings
1 star 2 stars 3 stars 4 stars 5 stars
comments

Change Tab

Tabbed by:  Cohen Hartman
Email:Cohen330@juno.com

Tuning:DADGBE
All the other versions of this song on the site were either not great, or had a
wierd tunings that the deftones use.  This is how to play it in an easy drop D,
and it still sounds great.

e|---------------------------------------------------------------------------|
B|---------------------------------------------------------------------------|
G|---------------------------------------------------------------------------|
D|-----------------------------------5-5-5-8-8-8-7-7-7-8-8-8-8-7-5-----------|
A|----------8-8-8-8-8-8-8-8-8-8-8-0--5-5-5-5-5-5-5-5-5-5-5-5-5-5-5-----------|
D|---0--0-0-0-0-0-0-0-0-0-0-0-0-0-0--5-5-5-5-5-5-5-5-5-5-5-5-5-5-5-----------!

e|---------------------------------------------------------------------------|
B|---------------------------------------------------------------------------|
G|---------------------------------------------------------------------------|
D!-----------------------------------5-5-5-8-8-8-7-7-7-8-8-8-8-7-5-----------|
A|----------8-8-8-8-8-8-8-8-8-8-8-0--5-5-5-5-5-5-5-5-5-5-5-5-5-5-5-----------|
D|---0--0-0-0-0-0-0-0-0-0-0-0-0-0-0--5-5-5-5-5-5-5-5-5-5-5-5-5-5-5-----------!

Repeat this through the verse as he sings " I watched you change"  Then comes the chorus.
[ Tab from: http://www.guitartabs.cc/tabs/d/deftones/change_tab_ver_6.html ]
CHORUS
e|---------------------------------------------------------------------------|
B|---------------------------------------------------------------------------|
G|---------------------------------------------------------------------------|
D|-0-0-0-0-0-0-0-0-0-0-0-0-0-0-0-0-8-8-8-8-8-8-8-8-8-8-8-8-8-8-8-8-----------|
A|-0-0-0-0-0-0-0-0-0-0-0-0-0-0-0-0-8-8-8-8-8-8-8-8-8-8-8-8-8-8-8-8-----------|
D|-0-0-0-0-0-0-0-0-0-0-0-0-0-0-0-0-8-8-8-8-8-8-8-8-8-8-8-8-8-8-8-8-----------|
          " I watched a change"
e|---------------------------------------------------------------------------|
B|---------------------------------------------------------------------------|
G|---------------------------------------------------------------------------|
D|-0-0-0-0-0-0-0-0-0-0-0-0-0-0-0-0-8-8-8-8-8-8-8-8-8-8-8-8-8-8-8-8-----------|
A|-0-0-0-0-0-0-0-0-0-0-0-0-0-0-0-0-8-8-8-8-8-8-8-8-8-8-8-8-8-8-8-8-----------|
D|-0-0-0-0-0-0-0-0-0-0-0-0-0-0-0-0-8-8-8-8-8-8-8-8-8-8-8-8-8-8-8-8-----------|
         "it's like you never"
e|---------------------------------------------------------------------------|
B|---------------------------------------------------------------------------|
G|---------------------------------------------------------------------------|
D|-0-0-0-0-0-0-0-0-0-0-0-0-0-0-0-0-8-8-8-8-8-8-8-8-8-8-8-8-8-8-8-8-----------|
A|-0-0-0-0-0-0-0-0-0-0-0-0-0-0-0-0-8-8-8-8-8-8-8-8-8-8-8-8-8-8-8-8-----------|
D|-0-0-0-0-0-0-0-0-0-0-0-0-0-0-0-0-8-8-8-8-8-8-8-8-8-8-8-8-8-8-8-8-----------|


e|---------------------------------------------------------------------------|
B|---------------------------------------------------------------------------|
G|---------------------------------------------------------------------------|
D|-0-0-0-0-0-0-0-0-0-0-0-0-0-0-0-0-8-8-8-8-8-8-8-8-8-8-8-8-8-8-8-8-----------|
A|-0-0-0-0-0-0-0-0-0-0-0-0-0-0-0-0-8-8-8-8-8-8-8-8-8-8-8-8-8-8-8-8-----------|
D|-0-0-0-0-0-0-0-0-0-0-0-0-0-0-0-0-8-8-8-8-8-8-8-8-8-8-8-8-8-8-8-8-----------|

   Then it goes back to the verse and he sings more as you play the beginning riff.
e|---------------------------------------------------------------------------|
B|---------------------------------------------------------------------------|
G|---------------------------------------------------------------------------|
D!-----------------------------------5-5-5-8-8-8-7-7-7-8-8-8-8-7-5-----------|
A|----------8-8-8-8-8-8-8-8-8-8-8-0--5-5-5-5-5-5-5-5-5-5-5-5-5-5-5-----------|
D|---0--0-0-0-0-0-0-0-0-0-0-0-0-0-0--5-5-5-5-5-5-5-5-5-5-5-5-5-5-5-----------!
   Thats about it, except that at the last time they play the chorus in the song,
and as soon as they finish saying "I watched you chaaaaaange", the chord changes
to this:
   (this is someways into the chorus)
e|---------------------------------------------------------------------------|
B|---------------------------------------------------------------------------|
G|--------------------------10-10-10-10-10-10-10-10-10-10-10-10-10-10-10-10--|
D|-8-8-8-8-8-8-8-8-8-8-8-8--10-10-10-10-10-10-10-10-10-10-10-10-10-10-10-10--!
A|-8-8-8-8-8-8-8-8-8-8-8-8--8--8--8--8--8--8--8--8--8--8--8--8--8--8--8--8---!
D|-8-8-8-8-8-8-8-8-8-8-8-8---------------------------------------------------!
("I watched you chaaaaange"

  The song ends with barring on the eight string, and hitting it hard 3 times
e|---------------------------------------------------------------------------|
B|---------------------------------------------------------------------------|
G|---------------------------------------------------------------------------|
D|-8-8-8---------------------------------------------------------------------!
A|-8-8-8---------------------------------------------------------------------!
E|-8-8-8---------------------------------------------------------------------!

Thanks a lot, and if you have any questions, feel free to email me at
cohen330@juno.com ~ later
Comments