Deftones - Change Chords & Tabs

 

Change Chords & Tabs

Deftones Chords & Tabs

Version: 4 Type: Tab 0 ratings
1 star 2 stars 3 stars 4 stars 5 stars
comments

Change Tab

   
E B G D A D (high to low)

intro and verse  (with distortion and delay)
--------------------------------------------
--------------------------------------------
-8--8---8--8----8--8---8--8---8--8--8--8----
-x--x---x--x----x--x---x--x---x--x--x--x----
-6--6---6--6----6--6---6--6---6--6--6--6----
--------------------------------------------

--------------------------------------------
--------------------------------------------
--------------------------------------------
--3--3--3--6--5---5---6--6--6--6--5--3--3---
--3--3--3--3--3---3---3--3--3--3--3--3--3---
--3--3--3--3--3---3---3--3--3--3--3--3--3---

chorus

-----------------||
-----------------||
--5---5---5---5--||     x4
--5---5---5---5--||
--3---3---3---3--||
--3---3---3---3--||

and then
 
------------||
------------||
--8--8--8--8|| x4
--6--6--6--6||
--6--6--6--6||
--6--6--6--6||

repeat for verse 2 and chorus 2

bridge
---------------------------------------------------------
---------------------------------------------------------
--3--3--3--3--3--3--3--3--3--3--3--3--3--3--3--5--5--5--5
--3--3--3--3--3--3--3--3--3--3--3--3--3--3--3--5--5--5--5
--1--1--1--1--1--1--1--1--1--1--1--1--1--1--1--3--3--3--3
--1--1--1--1--1--1--1--1--1--1--1--1--1--1--1--3--3--3--3
[ Tab from: http://www.guitartabs.cc/tabs/d/deftones/change_tab_ver_4.html ]
------------------------------------
------------------------------------
--5--5--5--5--5--5--5--5--5--5--5--5
--5--5--5--5--5--5--5--5--5--5--5--5
--3--3--3--3--3--3--3--3--3--3--3--3
--3--3--3--3--3--3--3--3--3--3--3--3

[------------------------------------------------- ] repeat this part only 
[------------------------------------------------- ]for 3 or 4 times + or -
[-5-----------------------------------8----------- ]
[-5-----------------6---5-------6----------------- ]
[-3-------------------------6---------6----------- ]
[-3-------------3--------------------------------- ]

then go back to chorus

outro 
--------------------------------------------------------
--------------------------------------------------------
--5-------5--------5--------5--------5--5--5--5---------
--5-------5--------5--------5--------5--5--5--5---------
--3-------3--------3--------3--------3--3--3--3---------
--3-------3--------3--------3--------3--3--3--3---------

--------------------------------------------------------
--------------------------------------------------------
--------------------------------------------------------
--3--3--3--6--5----6--6--6--6--5--3--3------------------
--3--3--3--3--3----3--3--3--3--3--3--3------------------
--3--3--3--3--3----3--3--3--3--3--3--3------------------

repeat this twice and thats it

its a pretty easy song, but a really nice one, i really like it
Comments