Deftones - Change In The House Of Flies Chords & Tabs

 

Change In The House Of Flies Chords & Tabs

Deftones Chords & Tabs

Version: 1 Type: Tab 0 ratings
1 star 2 stars 3 stars 4 stars 5 stars
comments

Change In The House Of Flies Tab

				    "Change (in the house of flies)"
 				           by the Deftones
				           as tabbed by JN

I am 14 yrs old and have been playing for about 6 months and i just got this CD today and it took me 5 
to figure this song out. This one of the easiest songs i know.
[ Tab from: http://www.guitartabs.cc/tabs/d/deftones/change_in_the_house_of_flies_tab.html ]
INTRO/VERSE
x|--------------------------------------..
x|--------------------------------------..
x|--------------------------------------..
x|4-4-4-4-4-4-4-4-4-4-2-2-2-2-2-2-------..
x|3-3-3-3-3-3-3-3-3-3-1-1-1-1-1-1-------.. i dont have the right number of notes there but you get the idea
x|5-5-5-5-5-5-5-5-5-5-3-3-3-3-3-3-------..

CHORUS  (quarter eighth eighth rhythm)
x|3-3-3-3....                    |6-6-6-6...--..
x|3-3-3-3....                    |6-6-6-6...--..
x|4-4-4-4.... then it goes up to |7-7-7-7...--..
x|5-5-5-5....              |8-8-8-8...--------..
x|5-5-5-5....             |8-8-8-8...---------..
x|3-3-3-3....             |6-6-6-6...---------..

INTERLUDE (this part is weird, listen to the CD for rhythm)
x|---------------------|
x|---------------------|
x|---------------------|
x|-----4-4-------------|
x|-3-3-----3-3-3-3-3---|  <-- just approximations
x|-------------------5-|
Comments