Deftones - Change In The House Of Flies Chords & Tabs

 

Change In The House Of Flies Chords & Tabs

Deftones Chords & Tabs

Version: 1 Type: Chords 0 ratings
1 star 2 stars 3 stars 4 stars 5 stars
comments

Change In The House Of Flies Chords

Deftones,The
Change (In The House Of Flies)
White Pony


*** This Is my very first tab, so personally i wouldn't complain much *** 

	*** This tab version is strictly Chino's guitar part ***
*** It's from watching footage when they played at Reading 2000 ***
	*** It's quiet diffrent from the CD version, but it's easier to tab and play ***
*** The song format too is slightly diffrent, so if you think it's complicated, you have 
    		to find the video or skip this tab ***


Intro/Main Reef/Chorus

Reef 1

D|-----|-----|-----|-----|
A|-----|-----|-----|-----|
F|--9--|--6--|--6--|--6--|
C|--9--|--7--|--8--|--7--|
G|--8--|--7--|--7--|--7--|
C|-----|--5--|--5--|--5--|


Extended chorus part (better known as the Aaahhh-Aahaaahhh part)
Play the below

Reef 2
[ Tab from: http://www.guitartabs.cc/tabs/d/deftones/change_in_the_house_of_flies_crd.html ]
D|-----|--3--|
A|-----|--2--|
F|--5--|--3--|
C|--5--|--0--|
G|--3--|--0--|
C|--0--|--0--|

Bridge (continue directly from chorus reef 2)

Reef 3

D|-----------|-------|-----------|-----|-----|-----|
A|-----------|-------|-----------|-----|-----|-----|	s = slide to
F|--11-s-10--|---14--|--11-s-10--|--6--|--6--|--6--|	  * play/strum note only once
C|--11-s-10--|---14--|--11-s-10--|--7--|--8--|--7--|        before sliding to the next
G|---9-s--8--|---12--|---9-s--8--|--7--|--7--|--7--|
C|-----------|-------|-----------|--5--|--5--|--5--|


Live version song format

Reef 1 - For all Verse-all Chorus-Outro 
Reef 2 - During the Aahaaahhhh- Aaahhhahh part
Reef 3 - In between the very first chorus after the quiet part and once in between outro

So Enjoy !!

I'm Emmette 
any correction 
be pleased to e-mail me - vubhan@yahoo.com

Comments