Deftones - Cant Even Breathe Chords & Tabs

 

Cant Even Breathe Chords & Tabs

Deftones Chords & Tabs

Version: 1 Type: Bass Tab 0 ratings
1 star 2 stars 3 stars 4 stars 5 stars
comments

Cant Even Breathe Bass Tab

   
Can't Even Breath 
Deftones 
Escape from L.A. sound track 
tab by James Copley  ( jcopley18@hotmail.com ) 
tunning low to high  D A D G 

intro 
G|------------------------- 
D|------------------------- 
A|------------------------- 
D|-9-/-7-7-0--9-/-7-7--7-0- 
[ Tab from: http://www.guitartabs.cc/tabs/d/deftones/cant_even_breathe_btab.html ]
verse 
G|----------------- 
D|----------------- 
A|----------------- 
D|-0--0-0-5-4--4-4- 

Chorus (may not b exact number of notes played) 
G|------------------------------------------------- 
D|------------------------------------------------- 
A|------------------------------------------------- 
D|-5-5-5-5-5-5-5-5-5-5-5-5-4-4-4-4-4-4-4-4-4-4-4-4- 

Interlude *Distortion on* 
G|------------------- 
D|------------------- 
A|------------------- 
D|-/-9--0--7--5-4-0-- 


Comments