Deftones - Boys Republic Chords & Tabs

 

Boys Republic Chords & Tabs

Deftones Chords & Tabs

Version: 1 Type: Tab 0 ratings
1 star 2 stars 3 stars 4 stars 5 stars
comments

Boys Republic Tab

Here's "The boy's Republic" off of the red or black version of
"White Pony." The other tab kind of sucked so here is my tab.I
have also included the lyrics at the bottom of page.


Verse/Main Riff:

D---------------------------//
A---------------------------//
F--------7-7-7--------------//
C-0-0-0--7-7-7-5-5-5/9-9-9--//
G-0-0-0--5-5-5-5-5-5/9-9-9--//
C-0-0-0--------5-5-5/9-9-9--//

Chorus:

D---------//
A---------//
F-5-5-5---//  <--Play for Infinate # of times.
C-3-3-3---//
G-3-3-3---//
C-3-3-3---//

Bridge:
[ Tab from: http://www.guitartabs.cc/tabs/d/deftones/boys_republic_tab.html ]
D-----------------------------------------------------------------//
A-----------------------------------------------------------------//
F-------------11--------------14-------------15--------------12---//
C--------------x---------------x--------------x---------------x---//
G--------------9--------------12-------------13--------------10---//
C-0-0-0-0-0-0----0-0-0-0-0-0-----0-0-0-0-0-0----0-0-0-0-0-0-------//


It's not perfect but, it does require listening for timing. If you
want any other Deftones tab EM for anything.(Guitargawd1@aol.com)
Oh yea, Here's the lyrics:

The Boys Republic

blue star
shine your light down
on everyone cause
i don't care
their soothing me
yes tear lung
blue star
shine your light down
pierce for my face
to heal my veins
down on everyone
cause i do care
their soothing me
tear lungs
it's more it's more
down shine light
shine your light
down
it's more it's more
on everyone cause i don't care
you're soothing me their lungs
blue star
shine your light
shine your light
shine your light down
blue star down
blue star shine down
on everyone cause i don't care
you're soothing me
their lungs
it's more
Comments