Deftones - Bored Chords & Tabs

 

Bored Chords & Tabs

Deftones Chords & Tabs

Version: 4 Type: Tab 0 ratings
1 star 2 stars 3 stars 4 stars 5 stars
comments

Bored Tab

Artist: Deftones
Song: Bored
Album: Adrenaline
Tabber:james silver
Email:tool_rockboy@msn.com

Tuning EADGBe - like all songs from Adrenaline

Verse:
e|-----------------|
B|-----------------|
G|-----------------|		
D|--888-7--8-7~----|		
A|--666-5--6-5~----|
E|--666-5--6-5~----|
  pm............

Chorus:
e|----------------------------|
B|----------------------------|
G|----------8--8-8--7-7-7-7-7-|
D|--5-5-5---8--8-8--7-7-7-7-7-|
A|--5-5-5---6--6-6--5-5-5-5-5-|
E|--3-3-3---------------------|
[ Tab from: http://www.guitartabs.cc/tabs/d/deftones/bored_tab_ver_4.html ]
Pre-Verse/Outro:			
e|-------------|
B|-------------|
G|-------------|
D|--888-7--8---|
A|--666-5--6---|
E|--666-5--6---|

Bridge:                 * = Harmonics
e|---------------------||---------0~----------|
B|---------------------||--*****--0~----------|
G|---------------------||--44444--4~----------|
D|--5555--5-5-55--5-5--||--55555--5~----------|
A|--5555--5-5-55--5-5--||---------------------|
E|--3333--3-3-33--3-3--||---------------------|



Thats about it, pretty tricky to get the Verse
to sound right.  But, if you practice enough it will
sound good.
Comments