Deftones - Bored Chords & Tabs

 

Bored Chords & Tabs

Deftones Chords & Tabs

Version: 2 Type: Tab 0 ratings
1 star 2 stars 3 stars 4 stars 5 stars
comments

Bored Tab

Deftones - Bored 

EVERY guitar is tuned a bit different, when i play it at my guitar it is the
same pitch like the original. If it is different at yours, try to play it one
step higher/lower (use fret 7 or 5 instead of 6 for example).
Please listen to the song for accurate timings.
Tuning is DADGBE (just drop the lowest e-string a whole step down so that
fret 7 - instead of 5 - sounds like normal A)


/     = slide up
(...) = should not be played but if you play it, the result is ok, too


verse riff 1
e|------------------|
g|------------------|
b|------------------|
D|-(2-2-2--1--2--1)-|
A|--2-2-2--1--2--1--|
D|--2-2-2--1--2--1--|


chorus riff 
e|--------------------------------------|
g|--------------------------------------|
b|--------------------------------------|
D|--6--6-6---2--2-2---1--1-1--1-1--1-1--|
A|--6--6-6---2--2-2---1--1-1--1-1--1-1--|
D|--6--6-6---2--2-2---1--1-1--1-1--1-1--|

[ Tab from: http://www.guitartabs.cc/tabs/d/deftones/bored_tab_ver_2.html ]
bridge   1                     bridge 2
e|--------------------------|  e|--------------------------------|
g|--------------------------|  g|--------------------------------|
b|--------------------------|  b|--------------------------------|
D|--6-6-6-6--6-6-6-6---6-6--|  D|--6-6-6-6--6-6-6-6/9-9-9-9-9-9--|
A|--6-6-6-6--6-6-6-6---6-6--|  A|--6-6-6-6--6-6-6-6/9-9-9-9-9-9--|
D|--6-6-6-6--6-6-6-6---6-6--|  D|--6-6-6-6--6-6-6-6/9-9-9-9-9-9--|

verse riff 2
e|------------------------------------------------------|
g|------------------------------------------------------|
b|------------------------------------------------------|
D|------------------------------------------------------|
A|--------------------------------------6---------------|
D|--6--------2--------1--------6-----------------1------|


 |ORDER|

 verse riff 1 (24x) 
 chorus riff  (2x)
 verse riff 1 (16x)
 chorus riff  (4x)
 verse riff 1 (20x)
 chorus riff  (4x) 
 bridge 1     (3x)
 bridge 2     (1x)
 verse riff 2 (2x)
 chorus riff  (8x)
 verse riff 1 (4x)


Have fun !

by sh!ne
Comments