Deftones - Bored Chords & Tabs

 

Bored Chords & Tabs

Deftones Chords & Tabs

Version: 4 Type: Bass Tab 0 ratings
1 star 2 stars 3 stars 4 stars 5 stars
comments

Bored Bass Tab

tabbed by: Dephtonez00
Band-Deftones
Song-"Bored"
album-Adrenaline
(intro)
g|------------------------------------------------
d|------------------------------------------------
a|------------------------------------------------ 
d|----------1-1-1-h1p~----------------------------

(verse)
g|------------------------------------------------
d|------------------------------------------------
a|------------6-6-6--5-5-5-5-5--------------------
d|------5-5-5-------------------------------------
[ Tab from: http://www.guitartabs.cc/tabs/d/deftones/bored_btab_ver_4.html ]
(verse 2)
g|------------------------------------------------
d|------------------------------------------------
a|------------------------------------------------
d|-----5-5-5--5-5-5-5-5-5--5--5--55-0-------------

(bass solo)
g|------------------------------------------------
d|------------------------------------------------
a|------6--5--------------------------------------
d|----5-------------------------------------------

intro:x24
verse:x2
intro:x16
verse:x4
verse:x20
verse 2:x1
bass solo:x1
verse:x8
intro:x4
Comments