Deftones - Bored Chords & Tabs

 

Bored Chords & Tabs

Deftones Chords & Tabs

Version: 3 Type: Bass Tab 0 ratings
1 star 2 stars 3 stars 4 stars 5 stars
comments

Bored Bass Tab

   
Band : Deftones
Song : Bored

Drop D Tunning : D , A , D , G .

Verse :

G:------------------------------------------------
D:------------------------------------------------
A:------------------------------------------------  X 24
D:-6-6-6-5-6-4-------------------------------------

Chorus :

G:------------------------------------------------
D:------------------------------------------------
A:-------6-6-5-5-5-5------------------------------  X 2
D:---6-6------------------------------------------

Verse   X 16 .

Chorus  X 4 .

Then rest 4 times and when Chino start singing you play
the verse 16 times more .
[ Tab from: http://www.guitartabs.cc/tabs/d/deftones/bored_btab_ver_3.html ]
Chorus  X 4 .
 
Bridge :

G:------------------------------------------------
D:------------------------------------------------
A:------------------------------------------------  X 4
D:-5-5-5-5--5-5-5-5--5-5--------------------------

Then chino starts to sing and you play this little solo :

G:------------------------------------------------
D:------------------------------------------------
A:--------------6let ring --5let ring ------------
D:--6let ring-------------------------------------   X 4

Chorus X 8

Verse  X 4.

That's all, a very easy but fuckin' noisy song.

For comments , correction , mentadas please e mail me :
mudddann@hotmail.com
P.S. I got msn messenger.
Comments