Deftones - Bloody Cape Live Chords & Tabs

 

Bloody Cape Live Chords & Tabs

Deftones Chords & Tabs

Version: 1 Type: Tab 0 ratings
1 star 2 stars 3 stars 4 stars 5 stars
comments

Bloody Cape Live Tab

   
-------------------------------------------------------------------------------
			    Bloody Cape (live) - Deftones
-------------------------------------------------------------------------------
(note to REVIEWER I dont know if I submitted this tab already but if I did that
one was incorrect this one is the one I want posted, so feel free to delete this text)
Tabbed by:Jonathan Mojica
5/9/03
Email:xcrossx1@yahoo.com

Tuning:Really Stef plays it on a 7-string baritone tuned down half a step
I play it on a six string baritone 1/2 step down
Low to High G#,Eb,G#,C#,F#,Bb

Intro

Bb|--------------------------------------------------------------------------|
F#|-5-5-5-5-5-5-5-5-5-5-5-5-5-5-5--5-5-5-5-5-5-5-5-5-5-5-5-5-5-5-5-----------|
C#|-5-5-5-5-5-5-5-5-5-5-5-5-5-5-5--6-6-6-6-6-6-6-6-6-6-6-6-6-6-6-6-----------|x2
G#|-0-0-0-0-0-0-0-0-0-0-0-0-0-0-0--------------------------------------------|
Eb|--------------------------------4-4-4-4-4-4-4-4-4-4-4-4-4-4-4-4-----------|
G#|--------------------------------------------------------------------------|
[ Tab from: http://www.guitartabs.cc/tabs/d/deftones/bloody_cape_live_tab.html ]
Chorus
Part 1
Bb|--------------------------------------------------------------------------|
F#|--------------------------------------------------------------------------|
C#|--------------------------------------------------------------------------|
G#|-0-2-2-0-2-2-0-2-2-0-2-2--3\2-2---8-8-8-8-8-8-----------------------------|
Eb|-0-2-2-0-2-2-0-2-2-0-2-2--3\2-2---8-8-8-8-8-8-----------------------------|
G#|-0-2-2-0-2-2-0-2-2-0-2-2--3\2-2---8-8-8-8-8-8-----------------------------|
Part 2
Bb|--------------------------------------------------------------------------|
F#|--------------------------------------------------------------------------|
C#|--------------------------------------------------------------------------|
G#|-0-2-2-0-2-2-0-2-2-0-2-2--3\2-2---8-8-8-8h10-10---------------------------|
Eb|-0-2-2-0-2-2-0-2-2-0-2-2--3\2-2---8-8-8-8h10-10---------------------------|
G#|-0-2-2-0-2-2-0-2-2-0-2-2--3\2-2---8-8-8-8h10-10---------------------------|

verse

Bb|--------------------------------------------------------------------------|
F#|-5-5-5-5-5-5-5-5-5-5-5-5-5-5-5--5-5-5-5-5-5-5-5-5-5-5-5-5-5-5-5-----------|
C#|-5-5-5-5-5-5-5-5-5-5-5-5-5-5-5--6-6-6-6-6-6-6-6-6-6-6-6-6-6-6-6-----------|
G#|-0-0-0-0-0-0-0-0-0-0-0-0-0-0-0--------------------------------------------|
Eb|--------------------------------4-4-4-4-4-4-4-4-4-4-4-4-4-4-4-4-----------|
G#|--------------------------------------------------------------------------|

Breakdown
when he screams "god help me, God help me, god help me im sick!!"
Just play it till the end
Bb|--------------------------------------------------------------------------|
F#|--------------------------------------------------------------------------|
C#|--------------------------------------------------------------------------|
G#|-1/2-2-1/2-2--------------------------------------------------------------|
Eb|-1/2-2-1/2-2--------------------------------------------------------------|
G#|-1/2-2-1/2-2--------------------------------------------------------------|


Song Structure:

Intro 
Chorus x2
Verse  x4
Chorus x2
verse  x4
chorus x2
Breakdown Listen for timing
Verse  x2
Breakdown Listen for timing

I tabbed this for all those real Deftones fans @ Deftonesworld.com
check out their message board.

| /  slide up
| \  slide down
| h  hammer-on
| p  pull-off
| ~  vibrato
| +  harmonic
| x  Mute note
===============================================================================
Comments