Deftones - Birthmark Chords & Tabs

 

Birthmark Chords & Tabs

Deftones Chords & Tabs

Version: 2 Type: Tab 0 ratings
1 star 2 stars 3 stars 4 stars 5 stars
comments

Birthmark Tab

#----------------------------------PLEASE NOTE--------------------------------#
#This file is the author's own work and represents their interpretation of the#
#song. You may only use this file for private study, scholarship, or research.#
#-----------------------------------------------------------------------------#
#-- File created with Instab - http://www.pconline.com/~smcarey/instab.html --#
#-----------------------------------------------------------------------------#

deftones:birthmark
by: onseph whitemarke
                                                                              

-12-----------12-------12---------12----------12-----12-------------0--
----11-----------11-------11---------11---------11-----11-----------0--
-------10-----------10-------10---------10--------10-----10---------0--
--------------------------------------------------------------------2--
--------------------------------------------------------------------2--
--------------------------------------------------------------------0--
                                                                              

---------------------------------------------------------------
---------------------------------------------------------------
---------------------------------------------------------------
----------------------5br--------9-9-9--9-9-9--9-9-9--5br------ X2
-7-7-7--7-7-7--7-7-7---------7---7-7-7--7-7-7--7-7-7--------7--
-0-0-0--0-0-0--0-0-0-------8-----0-0-0--0-0-0--0-0-0------8----
                                                                              

------------------------0-----
------------------------0-----
------------------------0-----
-2-5-5-4-----X8---------2-----
-2-5-5-4----------------2-----
-0-3-3-2----------------0-----
                                                                              
rest
[ Tab from: http://www.guitartabs.cc/tabs/d/deftones/birthmark_tab_ver_2.html ]
---------------------------------------------------------------
---------------------------------------------------------------
---------------------------------------------------------------
----------------------5br--------9-9-9--9-9-9--9-9-9--5br------ X2
-7-7-7--7-7-7--7-7-7---------7---7-7-7--7-7-7--7-7-7--------7--
-0-0-0--0-0-0--0-0-0-------8-----0-0-0--0-0-0--0-0-0------8----
|___________________| palm mute |___________________| palm mute

------------------------0-----
------------------------0-----
------------------------0-----
-2-5-5-4-----X8---------2-----
-2-5-5-4----------------2-----
-0-3-3-2----------------0-----                                          

--------
--------
--------
-------- X17
-7-7-7--
-0-0-0--
|______|-Palm-Mute,-Staccato (short fast notes)


---------------------------------------------------------------
---------------------------------------------------------------
---------------------------------------------------------------
----------------------5br--------9-9-9--9-9-9--9-9-9--5br------ X2
-7-7-7--7-7-7--7-7-7---------7---7-7-7--7-7-7--7-7-7--------7--
-0-0-0--0-0-0--0-0-0-------8-----0-0-0--0-0-0--0-0-0------8----

------------------------0-----
------------------------0-----
------------------------0-----
-2-5-5-4-----X8---------2-----
-2-5-5-4----------------2-----
-0-3-3-2----------------0-----  

im not sure about this next part, go nuts with pick scrapes, just go nuts

------------------------
------------------------
-------9-99--7----------
-2-22--9-99--7---5---4-- X4
-2-22--7-77--5---5---4--
-0-00----------0-3-0-2-- 

im not sure if the struming pattern is right but the chords are

--------------------------------------------------
--------------------------------------------------
-------9-99--7-----------------9-99--7--12-12-11--
-2-22--x-xx--x---5---4---2-22--x-xx--x---x--x--x-- X2
-2-22--7-77--5---5---4---2-22--7-77--5--10-10--9--
-0-00----------0-3-0-2---0-00---------------------

------------------------
------------------------
-------9-99--7----------
-2-22--9-99--7---5---4-- X3
-2-22--7-77--5---5---4--
-0-00----------0-3-0-2-- 

-----------------
-----------------
-------9-99--7---
-2-22--9-99--7--- 
-2-22--7-77--5---
-0-00------------ 

hold last chord and end on..

--------
--------
--9-----
--9----- 
--7-----
--0-----                         


Comments