Deftones - Birthmark Chords & Tabs

 

Birthmark Chords & Tabs

Deftones Chords & Tabs

Version: 1 Type: Bass Tab 0 ratings
1 star 2 stars 3 stars 4 stars 5 stars
comments

Birthmark Bass Tab

Deftones
"Birthmark"
Adrenaline

Basstab, transcribed by Christopher D. Heimer

Standard tuning


\ slide down
° bend

Riff 1 (Intro, Verse)

|------------------------------|
|------------------------------|
|-------7------------°9\7------|
|-0-0-0---0-0--0-0-0------7-8--|

Riff 2 (Chorus)

|--------------|
|--------------|
|--------------|
|-0--3-3-2--2--|

Riff 3 (End)
[ Tab from: http://www.guitartabs.cc/tabs/d/deftones/birthmark_btab.html ]
|------------------------|
|------------------------|
|------°7----5-----------|
|-0--0----0----0-3-0-3\2-|


Order:

Intro (without bass); Riff 1; Riff 2; Riff 1; Riff 2;
Riff 1; Riff 2; Riff 3 to end

That was all. Very easy one!
See this as an addition to the existing Birthmark.tab
for guitar as well because there the last part is 
missing.
If you think anything has to be said about this
tab or something in general you're all welcome.
Enjoy! 

Check out the Deftones live if possible!
I've seen them and they were great. Chino rules!

Bye, Christopher (Heimer@t-online.de)

Comments