Deftones - Be Quiet And Drive Chords & Tabs

 

Be Quiet And Drive Chords & Tabs

Deftones Chords & Tabs

Version: 6 Type: Tab 0 ratings
1 star 2 stars 3 stars 4 stars 5 stars
comments

Be Quiet And Drive Tab

   
#----------------------------------PLEASE NOTE---------------------------------#
#This file is the author's own work and represents their interpretation of the #
#song. You may only use this file for private study, scholarship, or research. #
#                                                                              #
#                                  Sakha Power!                                #
#                                                                          HIV #
#------------------------------------------------------------------------------##

song: Be Quiet and Drive (far away)
band: Deftones
album: Around the Fur (1997)
tabbed by: Hiv
mailto: korn_fan@mail.ru
Tune: standart Deft Tune (low to high): c#/g#/c#/f#/a#/d#

| :  Let ring
| PM Palm mute
| /  slide up
| \  slide down
| h  hammer-on
| p  pull-off
| ~  vibrato
| +  harmonic
| x  Mute note

Intro

riff 1
|--------------------------------------|
|--------------------------------------|
|-/12-12-12-12/18-18-18-18\------------|
|--------------------------------------|
|-/11-11-11-11-17-17-17-17-------------|
|--------------------------------------|

riff 2
|--------------------------------------|
|--------------------------------------|
|-/12-12-12-12/18-18\\-----------------|
|--------------------------------------|
|-/11-11-11-11-17-17\\-----------------|
|--------------------------------------|

Verse

|----------------------------------------------------------|
|----------------------------------------------------------|
|-11--11-11--1111--11-----11-11-11--12\--1111-11---11-12\--|
|--x---x--x---x-x---x-----11-11-11--12\--1111-11---11-12\--|
|--9---9--9---9-9---9------9--9--9---9----9-9--9----9--9---|
|--0---0--0---0-0---0------9--9--9---9----9-9--9----9--9---|

verse variation (Second Guitar)
(it's like "turun-turun-tun-tun-tu-tu-ruun!!!")

|-------------------------------------------------------------------|
|-------------------------------------------------------------------|
|-11/12--12/14--14/12-12-12-12\11--11-11-11--12\--1111-11---11-12\--|
|--x/-x---x/-x---x/-x--x--x--x--x--11-11-11--12\--1111-11---11-12\--|
|--9/10--10/12--12/10-10-10-10\-9---9--9--9---9----9-9--9----9--9---|
|-----------------------------------9--9--9---9----9-9--9----9--9---|

Chorus

|--------------------------------------|
|--------------------------------------|
|-/12-12-12-12/18-18-18-18\------------|
|--------------------------------------| repeat this (see at structure below!)
|-/11-11-11-11-17-17-17-17-------------|
|--------------------------------------|

Interlude
[ Tab from: http://www.guitartabs.cc/tabs/d/deftones/be_quiet_and_drive_tab_ver_6.html ]
|---------------------------------------------------------------------|
|---------------------------------------------------------------------|
|----11^---11^------1111----11^--------11-11-11-12\--1111-11---11-12\-|
|-----x-----x--------x-x-----x---------11-11-11-12\--1111-11---11-12\-|
|-----9^----9^-------9-9-----9^---------9--9--9--9----9-9--9----9--9--|
|-(0)---(0)-----(0)------(0)------------9--9--9--9----9-9--9----9--9--|

Bridge

|------------------------------------------------------|
|------------------------------------------------------|
|------------------------------------------------------|
|-0-0-*4-*4-*4--0-0-*6-*6-*6--0-0-*4-*4-*4---3/444/555-|
|-0-0-*4-*4-*4--0-0-*6-*6-*6--0-0-*4-*4-*4---3/444/555-|
|-0-0-*4-*4-*4--0-0-*6-*6-*6--0-0-*4-*4-*4---3/444/555-|

|------------------------------------------------------|
|------------------------------------------------------|
|------------------------------------------------------|
|-0-0-*6-*6-*6--0-0-*4-*4-*4--0-0-*6-*6-*6---3/444/555-|
|-0-0-*6-*6-*6--0-0-*4-*4-*4--0-0-*6-*6-*6---3/444/555-|
|-0-0-*6-*6-*6--0-0-*4-*4-*4--0-0-*6-*6-*6---3/444/555-|

|------------------------------------------------------|
|------------------------------------------------------|
|------------------------------------------------------|
|-0-0-*1-*1-*1--0-0-*1-*1-*1--0-0-*4-*4-*4---3/444/555-|
|-0-0-*1-*1-*1--0-0-*1-*1-*1--0-0-*4-*4-*4---3/444/555-|
|-0-0-*1-*1-*1--0-0-*1-*1-*1--0-0-*4-*4-*4---3/444/555-|

|---------------------------------------------------------|
|---------------------------------------------------------|
|---------------------------------------------------------|
|-0-0-*7-*7-*7--0-0-*9-*9-*9--0-0-*4-*4-*4---3/444/555-0:-|
|-0-0-*7-*7-*7--0-0-*9-*9-*9--0-0-*4-*4-*4---3/444/555-0:-|
|-0-0-*7-*7-*7--0-0-*9-*9-*9--0-0-*4-*4-*4---3/444/555-0:-|

Interlude (Variations) (Outro)

|-------------------------------------------------------------------------|
|-------------------------------------------------------------------------|
|----12\11^---11^------1111----11^--------11-11-11-12\--1111-11---11-12\--|
|-----x--x-----x--------x-x-----x---------11-11-11-12\--1111-11---11-12\--|
|----10\-9^----9^-------9-9-----9^---------9--9--9--9----9-9--9----9--9---|
|-(0)------(0)-----(0)------(0)------------9--9--9--9----9-9--9----9--9---|

then
|----------------------------------------------------------------------------|
|----------------------------------------------------------------------------|
|----12\11^---11^------1111----12\11^--------11-11-11-12\--1111-11---11-12\--|
|-----x--x-----x--------x-x-----x--x---------11-11-11-12\--1111-11---11-12\--|
|----10\-9^----9^-------9-9----10\-9^---------9--9--9--9----9-9--9----9--9---|
|-(0)------(0)-----(0)------(0)---------------9--9--9--9----9-9--9----9--9---|

And slowly song falls,
before as sharply makes the "Lotion", But it already other history.
Thats it! 
Thanks!!! for your using.

song structure:
1.Intro riff 1 x3, riff 2 1x 
2.Verse x3
3.Verse variation x1 (second guitar)
4.Verse x4
5.Interlude x2
6.Verse x2
7.Verse variation x1 (second guitar)
8.Chorus x4
9.Interlude x2
10.Verse x3
11.Verse variation x1 (second guitar)
12.Chorus x4
13.Interlude x4
14.Bridge x1
15.Interlude x?
16.Interlude (Variations)
(Outro)
Comments