Deftones - Be Quiet And Drive Chords & Tabs

 

Be Quiet And Drive Chords & Tabs

Deftones Chords & Tabs

Version: 5 Type: Tab 0 ratings
1 star 2 stars 3 stars 4 stars 5 stars
comments

Be Quiet And Drive Tab

   
Deftones	Be Quiet and Drive (far away)							
Db-Ab-Db-Gb-Bb-eb

Refrain								   dernière de l'intro
|--0~~~-0-0~~~-0-0~~~-0-0~~~-0--0~~~-0-0~~~-0-0~~~-0-0~~~-0~-||--0~~~-0-0~~~-0-0~~~-0-0~~~-0--0~~~-0-0~--|
|--0~~~-0-0~~~-0-0~~~-0-0~~~-0--0~~~-0-0~~~-0-0~~~-0-0~~~-0~-||--0~~~-0-0~~~-0-0~~~-0-0~~~-0--0~~~-0-0~--|
|-13~~-1313~~-1313~~-1313~--13/18~~-1818~~-1818~~-1818~~-18\-||-13~~-1313~~-1313~~-1313~--13/18~~-1818\\-|
|--0~~~-0-0~~~-0-0~~~-0-0~~~-0--0~~~-0-0~~~-0-0~~~-0-0~~~-0~-||--0~~~-0-0~~~-0-0~~~-0-0~~~-0--0~~~-0-0~--|
|-12~~-1212~~-1212~~-1212~--12/17~~-1717~~-1717~~-1717~~-17\-||-12~~-1212~~-1212~~-1212~--12/17~~-1717\\-|
|--0~~~-0-0~~~-0-0~~~-0-0~~~-0--0~~~-0-0~~~-0-0~~~-0-0~~~-0~-||--0~~~-0-0~~~-0-0~~~-0-0~~~-0--0~~~-0-0~--|

Couplet
|---------------------------------------------------------------|
|---------------------------------------------------------------|
|-11----1111---111111111111~~-----------------------------------| r1
|--------------------------------11--1111--1111—-11--1111-------|
|--9-----9-9----9-9-9-9-9-9~~-----9---9-9---9-9---9---9-9-------|
|--0-----0-0----0-0-0-0-0-0~~--0--9---910p9-9-9---9---910p9---0-|

|---------------------------------------------------------------|
|---------------------------------------------------------------|
|-11/12—12/14-14--12-1212\11~-----------------------------------| r2
|--------------------------------11--1111--1111—-11--1111-------|
|--9/10-10/12-12--10-1010\-9~-----9---9-9---9-9---9---9-9-------|
|--0-----0-----0---0--0-0~~~~--0--9---910p9-9-9---9---910p9---0-|

premier couplet : r1 3x / r2 / r1 4x
deuxième couplet : r1 2x / r2 / r1
troisème couplet : r1 3x / r2

Passage rapide
|-------------------------------------------------------------|
|-------------------------------------------------------------|
|-11----11----11--11~b--11~b----------------------------------|
|------------------------------11--1111--1111—-11--1111-------|
|--9-----9-----9---9~b---9~b----9---9-9---9-9---9---9-9-------|
|-----00-----0---0-----0-----0--9---910p9-9-9---9---910p9---0-|
[ Tab from: http://www.guitartabs.cc/tabs/d/deftones/be_quiet_and_drive_tab_ver_5.html ]
Final
|-------------------------------------------------------------------|
|-------------------------------------------------------------------|
|---------------------------------------------------5/6-6-6-6-6-6-6-| 2x, la 2nde fois, remplacer
|-0--0--4*4*-4*--0--0—2,6*2,6*-2,6*--0--0--4*4*-4*--3/4-4-4-5-5-5-5-| la 3e série d'harmoniques par
|-0--0--4*4*-4*--0--0—2,6*2,6*-2,6*--0--0--4*4*-4*--3/4-4-4-5-5-5-5-| des harmoniques en 2,6
|-0--0--4*4*-4*--0--0—2,6*2,6*-2,6*--0--0--4*4*-4*--3/4-4-4-5-5-5-5-|

|--------------------------------------------------------|
|--------------------------------------------------------|
|----------------------------------------5/6-6-6-6-6-6-6-|
|-0--0--1*x-x--0--0—1*x-x--0--0—4*4*-4*--3/4-4-4-5-5-5-5-|
|-0--0--1*x-x--0--0—1*x-x--0--0—4*4*-4*--3/4-4-4-5-5-5-5-|
|-0--0--1*x-x--0--0—1*x-x--0--0—4*4*-4*--3/4-4-4-5-5-5-5-|

|--------------------------------------------------------------------------------|
|--------------------------------------------------------------------------------|
|--------------------------------------------------5/6-6-6-6-6-6-6---------------|
|-0--0--4*4*-4*--0--0—2,6*2,6*-2,6*--0--0—4*4*-4*--3/4-4-4-5-5-5-5-0~~~~~~~~~~~~-|
|-0--0--4*4*-4*--0--0—2,6*2,6*-2,6*--0--0—4*4*-4*--3/4-4-4-5-5-5-5-0~~~~~~~~~~~~-|
|-0--0--4*4*-4*--0--0—2,6*2,6*-2,6*--0--0—4*4*-4*--3/4-4-4-5-5-5-5-0~~~~~~~~~~~~-|

Outro : riff du passage rapide / placer ces quatre fills suivis de la fin habituelle du riff
	 à partir de la 9e série

|------------------------------||------------------------------|
|------------------------------||------------------------------|
|-11----12-14—14\12---14-12----||-11----12--14—-11--12--14-----|
|------------------------------||------------------------------|
|--9----10-12-12\10---12-10----||--9----10--12---9--10--12-----|
|------0------------0--------0-||------0---0---0-------------0-|

|---------------------------------||---------------------------------|
|---------------------------------||---------------------------------|
|-12\11--11---12\1111---12\1111---||-12\11--11---14-11-----12\1111---|
|---------------------------------||---------------------------------|
|-10\-9---9---10\-9-9---10\-9-9---||-10\-9---9---12--9-----10\-9-9---|
|-------00---0---------0--------0-||-------00---0---0-----0--------0-|
Comments