Deftones - Be Quiet And Drive Chords & Tabs

 

Be Quiet And Drive Chords & Tabs

Deftones Chords & Tabs

Version: 4 Type: Tab 0 ratings
1 star 2 stars 3 stars 4 stars 5 stars
comments

Be Quiet And Drive Tab

   
Deftones:Be quiet and drive(far away)
Tuning:Cgcfad

listen to cd for the rythmn, repetions and arranges

Intro:4x
d-0--/-0---------------| -0-/--0---------------------
a-0--/-0---------------| -0-/--0---------------------
f-13-/-18--------------| -13/--18--------------------
c-14-/-x---------------| -14/--19-------------------- <~~~heres another way
g-12-/-17--------------| -12/--17--------------------
c----------------------| ----------------------------

Main riff:3x
d----------------------------------------------------------- later during the  
a----------------------------------------------------------- song, you bend the 
f----11-11-11-11-11-11-11xxxx--------11-11-11-11-11-11-11--- the strings of the
c----x--x--x--x--x--x--x-xxxx-11--11-11-11-11-11-11-11-11--- begining riff here
g-9--9--9--9--9--9--9--9-xxxx-9---9--9^-9--9--9--9^-9--9---- a half step, the
c-0--0--0--0--0--0--0--0-xxxx-9---9--9^-9--9--9--9^-9--9---- second part remains
[ Tab from: http://www.guitartabs.cc/tabs/d/deftones/be_quiet_and_drive_tab_ver_4.html ]
                                                             the same though
Then this fill-in:
d-------------------------------
a-------------------------------
f-11/-12-/-15--15-12-12-12/-11--
c-x-/-x--/-x---x--x--x--x-/-x---
g-9-/-10-/-13--13-10-10-10/-9---
c-0-/-0--/-0---0--0--0--0-/-0---

outro:
d--------------------------------------------------------
a--------------------------------------------------------
f--------------------------------------------------------
c-0-0----4*-0-0-0-------0-0-0----4*-0-3/4-4-4--4/5-5-5--- 
g-0-0-5*-4*-0-0-0-5*-3*-0-0-0-5*-4*-0-3/4-4-4--4/5-5-5--- 
c-0-0-5*----0-0-0-5*-3*-0-0-0-5*----0-3/4-4-4--4/5-5-5---            

d--------------------------------------------------
a--------------------------------------------------  X= mute at the first fret
f--------------------------------------------------  
c-0-0-x-x-0-0-0-x-x-0-0-0-x-x--0-3/4-4-4--4/5-5-5--
g-0-0-x-x-0-0-0-x-x-0-0-0-x-x--0-3/4-4-4--4/5-5-5-- finally after repeating,
c-0-0-x-x-0-0-0-x-x-0-0-0-x-x--0-3/4-4-4--4/5-5-5-- end with all opens

                                                    on the c-g-c strings
Comments