Deftones - Be Quiet And Drive Chords & Tabs

 

Be Quiet And Drive Chords & Tabs

Deftones Chords & Tabs

Version: 2 Type: Tab 0 ratings
1 star 2 stars 3 stars 4 stars 5 stars
comments

Be Quiet And Drive Tab

   
Person: cyprian

song: Be Quiet And Drive (Far Away)

artist: Deftones

tab: Listen to the song for beat and rhythem.
Tuning - Drop 1/2 step and drop d... Db Ab Db Gb Bb Eb

Intro/Fill
E-4-4-4-4-/--9-9-9-9-|
B-0-0-0-0-/--0-0-0-0-|
G-2-2-2-2-/--7-7-7-7-|
D-0-0-0-0-/--0-0-0-0-|
A--------------------|
D--------------------|
[ Tab from: http://www.guitartabs.cc/tabs/d/deftones/be_quiet_and_drive_tab_ver_2.html ]
Lick during main...
E--------------|
B--------------|
G-11-12-12-14--|
D-x--x--x--x---|
A-9--10-10-12--|
D-x--x--x--x---|

Main Riff
E---------------------------------------|
B---------------------------------------|
G-11-11-11-11-11-11--11-11-11-11-11-11--|
D-x--x--x--x--x--x---11-11-11-11-11-11--|
A-9--9--9--9--9--9---9--9--9--9--9--9---|
D-0--0--0--0--0--0---9--9--9--9--9--9---|

Solo Riff
E------------------------------|
B------------------------------|
G-11-11-x-x-11-11-11-12-12-12--|
D-x--x--x-x-11-11-11-12-12-12--|
A-9--9--x-x-9--9--9--10-10-10--|
D-0--0--x-x-9--9--9--10-10-10--|

Comments