Deftones - Be Quiet And Drive Chords & Tabs

 

Be Quiet And Drive Chords & Tabs

Deftones Chords & Tabs

Version: 1 Type: Tab 0 ratings
1 star 2 stars 3 stars 4 stars 5 stars
comments

Be Quiet And Drive Tab

   
Be Quiet And Drive - Deftones
-----------------------------
Tabbed by Kenny Luong (kenny.luong@usa.net)

**Taken from Guitar World (Feb 1998)
Tune Your Guitar Drop D Down 1/2 Step (Db Ab Db Gb Bb Eb)

Intro
|-4--4--4--4/9--9--9--9--9/4--|
|-0--0--0--0----0--0--0--0----|
|-2--2--2--2/7--7--7--7--7/2--|
|-0--0--0--0----0--0--0--0----|
|-----------------------------|
|-----------------------------|

end with:
|-4--4--4--4/9--9--9----------|
|-0--0--0--0----0--0----------|
|-2--2--2--2/7--7--7-(7)/-----|
|-0--0--0--0----0--0----------|
|-----------------------------|
|------------------------(0)--|

|---------------------------------|----------------------------------|
|---------------------------------|----------------------------------| ** let 
|--11---11-11---11-11---1111------|--11------11----11-11---11--------|  ring
|---------------------------------|--11------11----11-11---11--------|
|---9----9--9----9--9----9-9------|---9-------9^--9-9--9----9^--9-0--|
|---0--0-0--0--0-0--0--0-0-0-0-0--|---9---9-9-9^--9-9--9--9-9^--9-0--|

fill in:
|---------------------------------------|
|---------------------------------------|
|--11/12---12/14-14-14--12-12--12/11----|
|---------------------------------------|
|---9/10---10/12-12-12--10-10--10/-9----|
|--------0---------------------------0--|

1st Verse
|---------------------------------|----------------------------------|
|---------------------------------|----------------------------------| ** let
|--11---11-11---11-11---1111------|--11------11----11-11---11--------|  ring
|---------------------------------|--11------11----11-11---11--------|
|---9----9--9----9--9----9-9------|---9-------9^--9-9--9----9^--9-0--|
|---0--0-0--0--0-0--0--0-0-0-0-0--|---9---9-9-9^--9-9--9--9-9^--9-0--|
                                           **bends are 1/2 step

|---------------------------------|----------------------------------|
|---------------------------------|----------------------------------| ** let ring
|--^11-----^11--11--^11--^11------|--11------11----11-11---11--------|  ring
|---------------------------------|--11------11----11-11---11--------|
|---^9------^9---9---^9---^9------|---9-------9^--9-9--9----9^--9-0--|
|------0-0-----0---0----0----0-0--|---9---9-9-9^--9-9--9--9-9^--9-0--|
      **bends are 1/4 step                 **bends are 1/2 step
 
2nd & 3rd Verses
|---------------------------------|----------------------------------|
|---------------------------------|----------------------------------| ** let
|--11---11-11---11-11---1111------|--11------11----11-11---11--------|  ring
|---------------------------------|--11------11----11-11---11--------|
|---9----9--9----9--9----9-9------|---9-------9^--9-9--9----9^--9-0--|
|---0--0-0--0--0-0--0--0-0-0-0-0--|---9---9-9-9^--9-9--9--9-9^--9-0--|
                                           **bends are 1/2 step
[ Tab from: http://www.guitartabs.cc/tabs/d/deftones/be_quiet_and_drive_tab.html ]
|---------------------------------|----------------------------------|
|---------------------------------|----------------------------------| ** let
|--^11-----^11--11--^11--^11------|--11------11----11-11---11--------| ring
|---------------------------------|--11------11----11-11---11--------|
|---^9------^9---9---^9---^9------|---9-------9^--9-9--9----9^--9-0--|
|------0-0-----0---0----0----0-0--|---9---9-9-9^--9-9--9--9-9^--9-0--|
      **bends are 1/4 step                 **bends are 1/2 step

fill in (3rd verse only):
|---------------------------------------|
|---------------------------------------|
|--11/12---12/14-14-14--12-12--12/11----|
|---------------------------------------|
|---9/10---10/12-12-12--10-10--10/-9----|
|--------0---------------------------0--|

1st and 2nd Choruses
|-4--4--4--4/9--9--9--9--9/4--|
|-0--0--0--0----0--0--0--0----|
|-2--2--2--2/7--7--7--7--7/2--|
|-0--0--0--0----0--0--0--0----|
|-----------------------------|
|-----------------------------|

|---------------------------------|----------------------------------|
|---------------------------------|----------------------------------| ** let
|--^11-----^11--11--^11--^11------|--11------11----11-11---11--------|  ring
|---------------------------------|--11------11----11-11---11--------|
|---^9------^9---9---^9---^9------|---9-------9^--9-9--9----9^--9-0--|
|------0-0-----0---0----0----0-0--|---9---9-9-9^--9-9--9--9-9^--9-0--|
      **bends are 1/4 step                 **bends are 1/2 step

Bridge
|-------------------------------------|-----------------------------------|
|-------------------------------------|-----------------------------------|
|----------*4-------------------------|-----------------------------------|
|--0--0-*4-*4-*4-0--0------*2.6-------|--0--0-----------------------------|
|--0--0-*4-*4-*4-0--0-*2.6-*2.6-*2.6--|--0--0-*4-*4----3/4-4-4-4-5-5-5-5--|
|--0--0-*4-*4-*4-0--0-*2.6-*2.6-*2.6--|--0--0-*4-*4-*4-3/4-4-4-4-5-5-5-5--|
*=harmonics
|---------------------------|
|---------------------------|
|---------------------------|
|--0--0-0-----0--0--*4------|
|--0--0-0-0-0-0--0---0-0-0--|
|--0--0-0-0-0-0--0---0-0-0--|
                     

end with:
|-----|
|-----|
|-----|
|--0--|
|--0--|
|--0--|

3rd Chorus
|---------------------------------|----------------------------------|
|---------------------------------|----------------------------------| ** let
|--^11-----^11--11--^11--^11------|--11------11----11-11---11--------|  ring
|---------------------------------|--11------11----11-11---11--------|
|---^9------^9---9---^9---^9------|---9-------9^--9-9--9----9^--9-0--|
|------0-0-----0---0----0----0-0--|---9---9-9-9^--9-9--9--9-9^--9-0--|
      **bends are 1/4 step                 **bends are 1/2 step

fills:
|----------------------------------------|
|----------------------------------------|
|--^11---12-12-14-----12----14---12--12--|
|-------------------0-----0----0---------|
|---^9---10-10-12-0---10--0-12-0-10--10--|
|------0---------------------------------|

|------------------------------------|
|------------------------------------|
|--^11---12-14-----11-11-11-12-14----|
|----------------0-------------------|
|---^9---10-12-0----9--9--9-10-12-0--|
|------0-----------------------------|

|-----------------------------------------|
|-----------------------------------------|
|--12/11-----11----12---11----12/11-11----|
|----------0-----0----0----0-----------0--|
|--10/-9-0----9--0-10-0--9-0--10/-9--9-0--|
|----------------0------------------------|

|-----------------------------------------|
|-----------------------------------------|
|--12/11-----11----14---11----12/11-11-0--|
|---------------------0----0-----------0--|
|--10/-9---0--9--0-12-0--9-0--10/-9--9-0--|
|--------0-------0------------------------|


Comments