Deftones - Be Quiet And Drive Acoustic Chords & Tabs

 

Be Quiet And Drive Acoustic Chords & Tabs

Deftones Chords & Tabs

Version: 6 Type: Tab 0 ratings
1 star 2 stars 3 stars 4 stars 5 stars
comments

Be Quiet And Drive Acoustic Tab

   
-------------------------------------------------------------------------------
			     Be Quiet and Drive(Acoustic)- Deftones
-------------------------------------------------------------------------------
Tabbed by: chad_racine
Email: fdaboy@msn.com

Tuning: Drop D

This isn't the acoustic version with Incubus and Adam Sandler, it's the one with the 
thing in the intro and the dumb sounding drum beat at the end

         This             town     don't feel mine             I'm fast
e|-----------------------------------------------------------------------------|
B|-----------------------------------------------------------------------------|
G|-11-------------------------11-------------------------------11--------------|
D|--9-------------0------------9---------------0----------------9--------------|
A|--9-------------0------------9---------------0----------------9--------------|
D|--9-------------0------------9---------------0----------------9--------------|


        to         get away
e|--------------------------------12-(Harmonic)-|
B|----------------------------------------------|
G|----------11----------------------------------|
D|-0---------9-----------0----------------------|
A|-0---------9-----------0----------------------|
D|-0---------9-----------0----------------------|

e|-----------------------------------------------------------------------------|
B|--------------------------------10-7------------------------------------10-7-|
G|-11----11---9--11-------------9---------11----11---9---11-------------9------|
D|--9-------9---9--------0-----------------9-------9---9---------0-------------|
A|--9--------------------0-----------------9---------------------0-------------|
D|--9--------------------0-----------------9---------------------0-------------|


      I   dressed           you          In  her clothes            now drive
e|-----------------------------------------------------------------------------|
B|------------------------------------------------------10-7-------------------|
G|-11-------------------------11----------------------9--------11--------------|
D|--9-------------0------------9---------------0----------------9--------------|
A|--9-------------0------------9---------------0----------------9--------------|
D|--9-------------0------------9---------------0----------------9--------------|


          me           far
e|-----------------------------------------------|
B|-----------------------------------------------|
G|----------11-----------------------------------|
D|-0---------9-----------0--------0---0-0--0-0-0-|
A|-0---------9-----------0--------0---0-0--0-0-0-|
D|-0---------9-----------0--------0---0-0--0-0-0-|


                                              Away
e|---------------------------------------------------------------------------|
B|---------------------------------------------------------------------------|
G|---------------------------------------------------------------------------|
D|-5---5-5--5--5--5-5---5-5--0---0-0--0--0--0-0--0-0-------------------------|
A|-5---5-5--5--5--5-5---5-5--0---0-0--0--0--0-0--0-0-------------------------|
D|-5---5-5--5--5--5-5---5-5--0---0-0--0--0--0-0--0-0-------------------------|
[ Tab from: http://www.guitartabs.cc/tabs/d/deftones/be_quiet_and_drive_acoustic_tab_ver_6.html ]
                                              Away
e|---------------------------------------------------------------------------|
B|---------------------------------------------------------------------------|
G|---------------------------------------------------------------------------|
D|-5---5-5--5--5--5-5---5-5--0---0-0--0--0--0-0--0-0-------------------------|
A|-5---5-5--5--5--5-5---5-5--0---0-0--0--0--0-0--0-0-------------------------|
D|-5---5-5--5--5--5-5---5-5--0---0-0--0--0--0-0--0-0-------------------------|

                                              Away.......
e|---------------------------------------------------------------------------|
B|---------------------------------------------------------------------------|
G|--------------------------11--1111-11-11-1111-1111-------------------------|
D|-5---5-5--5--5--5-5---5-5--0---0-0--0--0--0-0--0-0-------------------------|
A|-5---5-5--5--5--5-5---5-5--0---0-0--0--0--0-0--0-0-------------------------|
D|-5---5-5--5--5--5-5---5-5--0---0-0--0--0--0-0--0-0-------------------------|

e|-----------------------------------------------------------------------------|
B|--------------------------------10-7------------------------------------10-7-|
G|-11----11---9--11-----11------9-------11----11---9---11-----11------9--------|
D|--9-------9---9--------0---------------9-------9---9---------0---------------|
A|--9--------------------0---------------9---------------------0---------------|
D|--9--------------------0---------------9---------------------0---------------|


    It feels               good                          To know you're
e|------------------------------------------------------------------------|
B|------------------------------------------------------------------------|
G|11-11-1111-1111-11-1111-11-11-1111-11-1111-111--11-11-1111-11-1111-1111-|
D|-9--9--9-9--9-9--9--9-9--0--0--0-0--0--0-0--0-0--9--9--9-9--9--9-9--9-9-|
A|-9--9--9-9--9-9--9--9-9--0--0--0-0--0--0-0--0-0--9--9--9-9--9--9-9--9-9-|
D|-9--9--9-9--9-9--9--9-9--0--0--0-0--0--0-0--0-0--9--9--9-9--9--9-9--9-9-|


                mine                    now drive             away
e|------------------------------------------------------------------------|
B|---------------------10-7-----------------------------------------------|
G|11-11-1111-11-1111--9----11-11-1111-11-1111-1111--11-11-1111-11-11-1111-|
D|-0--0--0-0--0--0-0--------9--9--9-9--9--9-9--9-9---0--0--0-0--0--0--0-0-|
A|-0--0--0-0--0--0-0--------9--9--9-9--9--9-9--9-9---0--0--0-0--0--0--0-0-|
D|-0--0--0-0--0--0-0--------9--9--9-9--9--9-9--9-9---0--0--0-0--0--0--0-0-|


  me                                    far
e|---------------------------------------------------|
B|---------------------------------------------------|
G|11-11-1111-1111-11-1111-11-11-1111-11-1111-1111-11-|
D|-9--9--9-9--9-9--9--9-9--0--0--0-0--0--0-0--0-0--9-|
A|-9--9--9-9--9-9--9--9-9--0--0--0-0--0--0-0--0-0--9-|
D|-9--9--9-9--9-9--9--9-9--0--0--0-0--0--0-0--0-0--9-|


                                       away
e|---------------------------------------------------------|
B|---------------------------------------------------------|
G|-11------------------11------------------11-----------11-|
D|--9-------------------0-------------------9------------0-|
A|--9-------------------0-------------------9------------0-|
D|--9-------------------0-------------------9------------0-|

| /  slide up
| \  slide down
| h  hammer-on
| p  pull-off
| ~  vibrato
| +  harmonic
| x  Mute note
===============================================================================
Comments