Deftones - Be Quiet And Drive Acoustic Chords & Tabs

 

Be Quiet And Drive Acoustic Chords & Tabs

Deftones Chords & Tabs

Version: 4 Type: Tab 0 ratings
1 star 2 stars 3 stars 4 stars 5 stars
comments

Be Quiet And Drive Acoustic Tab

Deftones with Incubud and Adam Sandler:

Be quiet and drive (acoustic)

This is the version they played on MTV Acoustic (dropped d-tuning)

I tried out the other tab for this song, but it wasn't that right, so I
decided to tab it.
I tried to tab the riffs that Mike (Incubus) uses to go from the
verse into the chorus and also the riff he uses to go from the "light" part
to the "heavy" part. It's not easy to get the right timing there.

Please rate the tab or post comments!


The order is given, so...enjoy!


Verse 1
   
e-------------------------------------------
b---------------------------------5---------
g------11------11-----------7---7---7-------
d------11---11----11----------4-------4-----
a----9----9----------9----5-----------------
D--9--------------------0-------------------

e-------------------------------------------
b---------------------------------5---------
g------11------11-----------7---7---7-------
d------11---11----11----------4-------4-----
a----9----9----------9----5-----------------
D--9--------------------0-------------------

e-------------------------------------------
b---------------------------------5---------
g------11------11-----------7---7---7-------
d------11---11----11----------4-------4-----
a----9----9----------9----5-----------------
D--9--------------------0-------------------

e-------------------------------------------
b---------------------------------5---------
g------11------11-----------7---7---7-------
d------11---11----11----------4-------4-----
a----9----9----------9----5-----------------
D--9--------------------0-------------------


Verse 2

e-------------------------------------------
b-----------------------5--5-5-5-5---5------
g----11-11111111---11---7--7-7-7-7---7------
d----11-11111111---11---4--4-4-4-4---4------
a----9--9-9-9-9----9----5--5-5-5-5-5-5------
D--9-9--9-9-9-9--9-9--0-0--0-0-0-0-0-0------

e-------------------------------------------
b-----------------------5--5-5-5-5---5------
g----11-11111111---11---7--7-7-7-7---7------
d----11-11111111---11---4--4-4-4-4---4------
a----9--9-9-9-9----9----5--5-5-5-5-5-5------
D--9-9--9-9-9-9--9-9--0-0--0-0-0-0-0-0------

e-------------------------------------------
b-----------------------5--5-5-5-5---5------
g----11-11111111---11---7--7-7-7-7---7------
d----11-11111111---11---4--4-4-4-4---4------
a----9--9-9-9-9----9----5--5-5-5-5-5-5------
D--9-9--9-9-9-9--9-9--0-0--0-0-0-0-0-0------

e------------------------------------------------------
b-----------------------5--5---------------------------
g----11-11111111---11---7--7--9/11-11-11--9-9-9--9-9---
d----11-11111111---11---4--4--9/11-11-11--9-9-9--9-9---  <- listen closely to the
a----9--9-9-9-9----9----5--5--7/9--9--9---7-7-7--7-7---     song for this part
D--9-9--9-9-9-9--9-9--0-0--0--0-0--0--0---0-0-0--0-7---


Chorus 

e-------------------------------------------
b-----------------------5--5-5-5-5---5------
g----9--9-9-9-9----9----7--7-7-7-7---7------
d----9--9-9-9-9----9----4--4-4-4-4---4------
a----7--7-7-7-7----7----5--5-5-5-5-5-5------
D--7-7--7-7-7-7--7-7--0-0--0-0-0-0-0-0------

e-------------------------------------------
b-----------------------5--5-5-5-5---5------
g----9--9-9-9-9----9----7--7-7-7-7---7------
d----9--9-9-9-9----9----4--4-4-4-4---4------
a----7--7-7-7-7----7----5--5-5-5-5-5-5------
D--7-7--7-7-7-7--7-7--0-0--0-0-0-0-0-0------

e-------------------------------------------
b-----------------------5--5-5-5-5---5------
g----9--9-9-9-9----9----7--7-7-7-7---7------
d----9--9-9-9-9----9----4--4-4-4-4---4------
a----7--7-7-7-7----7----5--5-5-5-5-5-5------
D--7-7--7-7-7-7--7-7--0-0--0-0-0-0-0-0------

e-------------------------------------------
b-----------------------5--5-5-5-5---5------
g----9--9-9-9-9----9----7--7-7-7-7---7------
d----9--9-9-9-9----9----4--4-4-4-4---4------
a----7--7-7-7-7----7----5--5-5-5-5-5-5------
D--7-7--7-7-7-7--7-7--0-0--0-0-0-0-0-0------


Verse 3

e-------------------------------------------
b-----------------------5--5-5-5-5---5------
g----11-11111111---11---7--7-7-7-7---7------
d----11-11111111---11---4--4-4-4-4---4------
a----9--9-9-9-9----9----5--5-5-5-5-5-5------
D--9-9--9-9-9-9--9-9--0-0--0-0-0-0-0-0------

e-------------------------------------------
b-----------------------5--5-5-5-5---5------
g----11-11111111---11---7--7-7-7-7---7------
d----11-11111111---11---4--4-4-4-4---4------
a----9--9-9-9-9----9----5--5-5-5-5-5-5------
D--9-9--9-9-9-9--9-9--0-0--0-0-0-0-0-0------

e-------------------------------------------
b-----------------------5--5-5-5-5---5------
g----11-11111111---11---7--7-7-7-7---7------
d----11-11111111---11---4--4-4-4-4---4------
a----9--9-9-9-9----9----5--5-5-5-5-5-5------
D--9-9--9-9-9-9--9-9--0-0--0-0-0-0-0-0------
[ Tab from: http://www.guitartabs.cc/tabs/d/deftones/be_quiet_and_drive_acoustic_tab_ver_4.html ]
e------------------------------------------------------------------
b-----------------------5--5---------------------------------------
g----11-11111111---11---7--7--9/11-11-11--9-9-9--9-9-------9-------
d----11-11111111---11---4--4--9/11-11-11--9-9-9--9-9------9-------- <- listen closely to the
a----9--9-9-9-9----9----5--5--7/9--9--9---7-7-7--7-7-----7---------     song for this part
D--9-9--9-9-9-9--9-9--0-0--0--0-0--0--0---0-0-0--0-0----7----------


"light" part

e-------------------------------0-----------
b-----------------------------5-------------
g-------11------------------7---------------
d-----11------------------4-----------------
a----9------------------5-------------------
D---9-----------------0---------------------

e-----------------------------0-------------
b---------------------------5---5-----------
g---------11--------------7-------7---------
d------11----11---------4-------------------
a----9----------------5---------------------
D--9----------------------------------------

e-------------------------------------------
b-----------------------------5-------------
g---------11----------------7---------------
d------11----11-----------4-----------------
a----9------------------5-------------------
D--9------------------0---------------------


use this riff to go from the light part into the heavy part

e-----------------------------------------------------------------
b----------------------------5---5--------------------------------
g-------11------11-----------7---7----9-9-9--11-11-11--11-11------
d-------11---11----11--------4---4----9-9-9--11-11-11--11-11------ <- also listen to the
a-----9----9----------9----5-5-5-5-5--7-7-7--9--9--9---9--9-------    song for this part
D---9--------------------0---0-0-0-0--0-0-0--0--0--0---9--9-------


"heavy" part ( with the weird sound in the background)

e-------------------------------------------
b-----------------------5--5-5-5-5---5------
g----11-11111111---11---7--7-7-7-7---7------
d----11-11111111---11---4--4-4-4-4---4------
a----9--9-9-9-9----9----5--5-5-5-5-5-5------
D--9-9--9-9-9-9--9-9--0-0--0-0-0-0-0-0------

e-------------------------------------------
b-----------------------5--5-5-5-5---5------
g----11-11111111---11---7--7-7-7-7---7------
d----11-11111111---11---4--4-4-4-4---4------
a----9--9-9-9-9----9----5--5-5-5-5-5-5------
D--9-9--9-9-9-9--9-9--0-0--0-0-0-0-0-0------

e-------------------------------------------
b-----------------------5--5-5-5-5---5------
g----11-11111111---11---7--7-7-7-7---7------
d----11-11111111---11---4--4-4-4-4---4------
a----9--9-9-9-9----9----5--5-5-5-5-5-5------
D--9-9--9-9-9-9--9-9--0-0--0-0-0-0-0-0------

e-------------------------------------------
b-----------------------5--5-5-5-5---5------
g----11-11111111---11---7--7-7-7-7---7------
d----11-11111111---11---4--4-4-4-4---4------
a----9--9-9-9-9----9----5--5-5-5-5-5-5------
D--9-9--9-9-9-9--9-9--0-0--0-0-0-0-0-0------


then play this arter the "heavy" part

e-------------------------------------------------
b------------------------------5---5--------------
g-------11------11-------------7---7-7------------
d-------11---11----11----------4---4-4------------
a-----9----9----------9------5-5-5-5-5-5----------
D---9----------------------0---0-0-0--------------

e-----------------------------------------------------
b-----------------------------------------------------
g-------11------11-------------------2-2h3h4-2--------
d-------11---11----11----------2h3h4-----------4------
a-----9----9----------9------0-------------------0----
D---9----------------------0--------------------------

e-------------0---------------------------------------
b--------------------------------5--------------------
g----------11---11-------------7---7------------------
d-------11---------11----------4-----4---4---4--------
a-----9---------------9------5---------5---5----------
D---9----------------------0--------------------------

e-----------------------------------0-----------------
b-------------------------------------5---5-----------
g-------11------11-------------7--------7-------------
d-------11---11----11--------4----4------------4------
a-----9----9----------9----5-----------------5--------
D---9----------------------0--------------------------


end with this

e------------------------------------------
b------------------------------------------
g-----11-11-------11-------9/11------------
d-----11-11----11----11----9/11------------
a-----9--9---9----------9--0---------------
D---9----------------------0---------------



Lyrics

This town, don't feel mine
I'm fast to get away

I dressed you in her clothes
Now drive me far

Away...
Away...
Away...

It feels good, to know you're mine
Now drive me so far

Away...
(I don't care where ,just far)
Away...
(I don't care where ,just far)
Away...
(I don't care where ,just far)

Away...

Away...
(I don't care where ,just far)
Away...
(I don't care where ,just far)
Away...
(I don't care where ,just far)
Take me away...
(I don't care where ,just far)
Away...
(I don't care where ,just far)
Away...
(I don't care where ,just far)
Away...
(I don't care where ,just far)
Away...
(I don't care where ,just far)
Comments