Deftones - Be Quiet And Drive Acoustic Chords & Tabs

 

Be Quiet And Drive Acoustic Chords & Tabs

Deftones Chords & Tabs

Version: 2 Type: Tab 1 rating
1 star 2 stars 3 stars 4 stars 5 stars
comments

Be Quiet And Drive Acoustic Tab

Song: Be Quiet and Drive Acoustic
Band: Deftones
Tuning: Drop D
Tab by Ruby


This is he begining and it is used throughout the song
|----------------------------------------------------------------|
|----------------------------------------------------------------|
|---11-----------------------------------------------------------|
|----x--------11-------------------------------------------------|
|----9---------9-------------------------------------------------|
|----0---------9-------------------------------------------------| 


[ Tab from: http://www.guitartabs.cc/tabs/d/deftones/be_quiet_and_drive_acoustic_tab_ver_2.html ]
|------------------0----------------------------0---5-------------|
|-------------------------------------------------------7---------|
|--11-----11-------------11---------------------------------------|
|---x----------9------7----------------11-------------------------|
|---9-----------------------------------9-------------------------|
|---0-----------------------------------9-------------------------| 


The chorus is something like this
|-------------------------------------------------------------|
|-------------------------------------------------------------|
|-11--11---11--11---11--11--11--11----------------------------|
|--x---x----x---x---11--11--11--11----------------------------|
|--9---9----9---9----9---9----9---9-------------------------- |
|--0---0----0---0----9---9----9---9---------------------------| 

These are the basic three parts to the song, I think this is right, i tabbed and figured it out
at 2 a.m. so if it isnt right thats why.  But if you do have any problems email me at
ruby954@aol.com

Comments