Deftones - Battle Axe Chords & Tabs

 

Battle Axe Chords & Tabs

Deftones Chords & Tabs

Version: 2 Type: Tab 0 ratings
1 star 2 stars 3 stars 4 stars 5 stars
comments

Battle Axe Tab

   
Artist: Deftones
Album: Deftones
Song: Battle Axe
Tuning: G# Eb Ab Db Gb Bb Eb
(1/2 step down...G# 1 1/2 step down from standard B)

Intro
eb------------------0-----------------------------------|
Bb--------------3-----3---------------------------------|
Gb---------0-------------0---0---0---0------------------|
Db----4------4---4--------4---4---4---4-0-0-------------|
Ab-2----2-----------------------------------------------|
Eb------------------------------------------------------|
G#------------------------------------------------------|
[ Tab from: http://www.guitartabs.cc/tabs/d/deftones/battle_axe_tab_ver_2.html ]
Verses
Bb---------------------------------------------------------|
Gb---------------------------------------------------------|
Db---------------------------------------------------------|
Ab--2-play a few times--------------5----------------------|
Eb--2-with slight bend on occasion--5----------------------|
G#--2-------------------------------5----------------------|

Chorus
Bb--------------------------------------------------------|
Gb--------------------------------------------------------|
Db-4----10-----7-----9------------------------------------|
Ab-2-----8-----5-----7------------------------------------|
Eb-2-----8-----5-----7------------------------------------|
G#-2-----8-----5-----7------------------------------------|
(figure out the strumming...its simple)

Good song..pretty straightforward
Comments