Deftones - Back To School Chords & Tabs

 

Back To School Chords & Tabs

Deftones Chords & Tabs

Version: 3 Type: Tab 0 ratings
1 star 2 stars 3 stars 4 stars 5 stars
comments

Back To School Tab

   
Tab By: Shachar Udi (drshedow@hotmail.com)
Guitar: Gibson M3
Artist: Deftons
Song  : Back to school
Cd    : White Pony
Tuning: (e,B,G,D,A,e) - its probebly 1/2 Tone down and then drop D but
			this vertsion is for orginal tuning


Intro:
------

e|-12--12--12-12-12-12---12-12-12-12-12-12-|:|
B|-x---x---x--x--x--x----9--9--9--9--9--9--|:|
G|-9-9-9---9--9--9--9-------x--------------|X|
D|-----------------------------------------|2|
A|-----------------------------------------|:|
E|-----------------------------------------|:|
				   So RUN !

Brake Out:
----------

e|-------------------------|
B|-------------------------|
G|-13--5--8-8-8-8----------|
D|-13--5--8-8-8-8----------|
A|-11--3--6-6-6-6----------|
E|-11--3--6-6-6-6----------|

Verse:
------
[ Tab from: http://www.guitartabs.cc/tabs/d/deftones/back_to_school_tab_ver_3.html ]
e|-------------------------|
B|-------------------------|
G|-10-9-13--5-5-5-5--------|
D|-10-9-13--5-5-5-5--------|
A|-8--7-11--3-3-3-3--------|
E|-8--7-11--3-3-3-3--------|

Chorse: (also uses in that thing after the second chorse i think)
------- (and in that thing with the "Bag's Bag's or somthing    )

e|----------------------------------------------|
B|----------------------------------------------|
G|-13--13--13--5--5--5--10--10--10--9--9--9--9--|
D|-13--13--13--5--5--5--10--10--10--9--9--9--9--|
A|-11--11--11--3--3--3--8---8---8---7--7--7--7--|
E|-11--11--11--3--3--3--8---8---8---7--7--7--7--|


--------------------------------
That's it I think.
Have fun with it and feel
free to Email me (adress on top)
and remember:
	     Slipknot: SUCKS!
	     Kitty   : SUCKS!
(don't send me emails about
that pleaze :-)
--------------------------------
	





Comments