Deftones - Back To School Chords & Tabs

 

Back To School Chords & Tabs

Deftones Chords & Tabs

Version: 10 Type: Tab 0 ratings
1 star 2 stars 3 stars 4 stars 5 stars
comments

Back To School Tab

   
Deftones	Back to School
C-G-C-F-A-D

Intro (ne jouer la note entre () que la 2nde fois
|-13--131313--1313--13131313--131313--131313--1313--13131313--1313-|
|---------------------------------10------10----10------1010----10-|
|-10--101010--------------10------(0~)-----0~~~~-----------0~------|
|------------------------------------------------------------------|
|------------------------------------------------------------------|
|------------------------------------------------------------------|

Explosion
|---------13--13--131313-|
|------------------------|
|-10~-----10--10--101010-|
|--8~--0~~~~~~~~~~~~~~~~-|
|--8~--0~~~~~~~~~~~~~~~~-|
|--8~--0~~~~~~~~~~~~~~~~-|

Couplet
|--------------------------------1313--13--131313-|
|-------------------------------------------------|
|--------------------------------1010--10--101010-|
|-----------------------------0~~~~~~~~~~~~~~~~~~-|
|-----------------------------0~~~~~~~~~~~~~~~~~~-|
|-5-5-5-5---5\4---4-4--/8--8--0~~~~~~~~~~~~~~~~~~-|

Refrain
|------------------------------------------------------------------|
|------------------------------------------------------------------|
|-1010101010101010101010101010101010101010101010101010101010101010-|
|--8-8-8-8-8-8-8-8-8-8-8-8-8-8-8-8-0-0-0-0-0-0-0-0-0-0-0-0-0-0-0-0-|
|--8-8-8-8-8-8-8-8-8-8-8-8-8-8-8-8-0-0-0-0-0-0-0-0-0-0-0-0-0-0-0-0-|
|--8-8-8-8-8-8-8-8-8-8-8-8-8-8-8-8-0-0-0-0-0-0-0-0-0-0-0-0-0-0-0-0-|

|-----------------------------------------------------------------|
|-----------------------------------------------------------------|
|-7-7-7-7-7-7-7-7-7-7-7-7-7-7-7-7-7-7-7-7-7-7-7-7-7-7-7-7-7-7-7-7-|
|-5-5-5-5-5-5-5-5-5-5-5-5-5-5-5-5-5-4-4-4-4-4-4-4-4-4-4-4-4-4-4-4-|
|-5-5-5-5-5-5-5-5-5-5-5-5-5-5-5-5-5-4-4-4-4-4-4-4-4-4-4-4-4-4-4-4-|
|-5-5-5-5-5-5-5-5-5-5-5-5-5-5-5-5-5-4-4-4-4-4-4-4-4-4-4-4-4-4-4-4-|
[ Tab from: http://www.guitartabs.cc/tabs/d/deftones/back_to_school_tab_ver_10.html ]
Reprise aigue
|------------------------------------------------------------------|
|------------------------------------------------------------------|
|-1010101010101010101010101010101010101010101010101010101010101010-|
|--8-8-8-8-8-8-8-8-8-8-8-8-8-8-8-8-0-0-0-0-0-0-0-0-0-0-0-0-0-0-0-0-|
|--8-8-8-8-8-8-8-8-8-8-8-8-8-8-8-8-0-0-0-0-0-0-0-0-0-0-0-0-0-0-0-0-|
|--8-8-8-8-8-8-8-8-8-8-8-8-8-8-8-8-0-0-0-0-0-0-0-0-0-0-0-0-0-0-0-0-|

|-------------------------------------------------------------------|
|-------------------------------------------------------------------|
|-10/121212121212121212121212121212-12/14141414141414-14/15151515~\-|
|-------------------------------------------------------------------|
|--8/101010101010101010101010101010-10/12121212121212-12/13131313~\-|
|--0~---0-0-0-0-0-0-0-0-0-0-0-0-0-0--0~---0-0-0-0-0-0--0~---0-0-0---|

|------------------------------------------------------------------|
|------------------------------------------------------------------|
|-10101010101010101010101010101010101010101010101010-8-8-8-8101010-|
|--8-8-8-8-8-8-8-8-8-8-8-8-8-8-8-8-0-0-0-0-0-0-0-0-0-0-0-0-0-0-0-0-|
|--8-8-8-8-8-8-8-8-8-8-8-8-8-8-8-8-0-0-0-0-0-0-0-0-0-0-0-0-0-0-0-0-|
|--8-8-8-8-8-8-8-8-8-8-8-8-8-8-8-8-0-0-0-0-0-0-0-0-0-0-0-0-0-0-0-0-|

|---------------------------------------------------------------------|
|---------------------------------------------------------------------|
|-10/121212121212121212121212121212-12/14141414141414-14/1515151515~\-|
|---------------------------------------------------------------------|
|--8/101010101010101010101010101010-10/12121212121212-12/1313131313~\-|
|--0~---0-0-0-0-0-0-0-0-0-0-0-0-0-0--0~---0-0-0-0-0-0--0~---0-0-0-0---|

Passage vers le pont & Outro
|---------13---13---13---13---13-13-13-13----13---13---13---13---13---13---13---13---13-|
|---------------------------------------------------------------------------------------|
|-10~-----10---10---10---10---10-10-10-10---10---10---10---10---10---10---10---10---10--|
|--8~--0~~~~~~~~~~~~~~~~~~~-------------------------------------------------------------|
|--8~--0~~~~~~~~~~~~~~~~~~~-------------------------------------------------------------|
|--8~--0~~~~~~~~~~~~~~~~~~~-------------------------------------------------------------|
          \_____________________________/   \__________________________________________/
			au pont			                   l'outro
Comments